0
SECTION
2
HEADER
9
$INSUNITS
70
4
9
$ACADVER
1
AC1014
9
$HANDSEED
5
FFFF
0
ENDSEC
0
SECTION
2
TABLES
0
TABLE
2
VPORT
5
8
100
AcDbSymbolTable
0
ENDTAB
0
TABLE
2
LTYPE
5
5
100
AcDbSymbolTable
0
LTYPE
5
14
100
AcDbSymbolTableRecord
100
AcDbLinetypeTableRecord
2
BYBLOCK
70
0
0
LTYPE
5
15
100
AcDbSymbolTableRecord
100
AcDbLinetypeTableRecord
2
BYLAYER
70
0
0
ENDTAB
0
TABLE
2
LAYER
5
2
100
AcDbSymbolTable
70
2
0
LAYER
5
50
100
AcDbSymbolTableRecord
100
AcDbLayerTableRecord
2
0
70
0
6
CONTINUOUS
0
ENDTAB
0
TABLE
2
STYLE
5
3
100
AcDbSymbolTable
70
1
0
STYLE
5
11
100
AcDbSymbolTableRecord
100
AcDbTextStyleTableRecord
2
STANDARD
70
0
0
ENDTAB
0
TABLE
2
VIEW
5
6
100
AcDbSymbolTable
70
0
0
ENDTAB
0
TABLE
2
UCS
5
7
100
AcDbSymbolTable
70
0
0
ENDTAB
0
TABLE
2
APPID
5
9
100
AcDbSymbolTable
70
2
0
APPID
5
12
100
AcDbSymbolTableRecord
100
AcDbRegAppTableRecord
2
ACAD
70
0
0
ENDTAB
0
TABLE
2
DIMSTYLE
5
A
100
AcDbSymbolTable
70
1
0
ENDTAB
0
TABLE
2
BLOCK_RECORD
5
1
100
AcDbSymbolTable
70
1
0
BLOCK_RECORD
5
1F
100
AcDbSymbolTableRecord
100
AcDbBlockTableRecord
2
*MODEL_SPACE
0
BLOCK_RECORD
5
1B
100
AcDbSymbolTableRecord
100
AcDbBlockTableRecord
2
*PAPER_SPACE
0
ENDTAB
0
ENDSEC
0
SECTION
2
BLOCKS
0
BLOCK
5
20
100
AcDbEntity
100
AcDbBlockBegin
2
*MODEL_SPACE
0
ENDBLK
5
21
100
AcDbEntity
100
AcDbBlockEnd
0
BLOCK
5
1C
100
AcDbEntity
100
AcDbBlockBegin
2
*PAPER_SPACE
0
ENDBLK
5
1D
100
AcDbEntity
100
AcDbBlockEnd
0
ENDSEC
0
SECTION
2
ENTITIES
0
LWPOLYLINE
5
100
100
AcDbEntity
8
0
100
AcDbPolyline
90
16
70
1
43
0.0
10
4.4102628850977323
20
-2
42
-0.10157008232222725
10
4.3905669201687738
20
-1.995957251500903
10
3.8844330798312257
20
-1.7790427484990974
42
0.10157008232223494
10
3.8647371149022671
20
-1.7750000000000001
10
3.3749999999999987
20
-1.7750000000000004
42
0.41421356237309992
10
3.324999999999998
20
-1.8250000000000006
10
3.324999999999998
20
-1.9749999999999996
42
0.41421356237308365
10
3.3749999999999982
20
-2.0249999999999999
10
3.8626975491715476
20
-2.0249999999999995
42
-0.12121684478590392
10
3.8858978989050756
20
-2.0307084232359918
10
4.3891021010949247
20
-2.2942915767640084
42
0.12121684478589248
10
4.4123024508284532
20
-2.3000000000000007
10
5.7999999999999998
20
-2.3000000000000003
42
0.4142135623731048
10
5.8499999999999996
20
-2.25
10
5.8499999999999996
20
-2.0500000000000003
42
0.41421356237309342
10
5.8000000000000007
20
-2.0000000000000013
0
LWPOLYLINE
5
101
100
AcDbEntity
8
0
100
AcDbPolyline
90
16
70
1
43
0.0
10
3.8657987184109781
20
-1.3000000000000009
42
-0.091246720497482711
10
3.8835984847905767
20
-1.3032756132535526
10
4.3914015152094272
20
-1.4967243867464486
42
0.091246720497480518
10
4.4092012815890271
20
-1.5000000000000002
10
5.8000000000000007
20
-1.5000000000000016
42
-0.41421356237309342
10
5.8499999999999996
20
-1.5500000000000003
10
5.8499999999999996
20
-1.7500000000000002
42
-0.4142135623731048
10
5.7999999999999998
20
-1.8000000000000003
10
4.4132782218537319
20
-1.7999999999999996
42
-0.13052020391575778
10
4.388471274935891
20
-1.7934121571062231
10
3.8865287250641067
20
-1.5065878428937762
42
0.13052020391575553
10
3.8617217781462649
20
-1.4999999999999991
10
3.3749999999999982
20
-1.4999999999999993
42
-0.41421356237310969
10
3.324999999999998
20
-1.449999999999998
10
3.3250000000000011
20
-1.3499999999999974
42
-0.41421356237307877
10
3.3750000000000013
20
-1.2999999999999992
0
LWPOLYLINE
5
102
100
AcDbEntity
8
0
100
AcDbPolyline
90
16
70
1
43
0.0
10
4.4132782218537319
20
-1.2999999999999992
42
-0.13052020391575778
10
4.3884712749358901
20
-1.2934121571062227
10
3.8865287250641067
20
-1.006587842893776
42
0.13052020391575239
10
3.8617217781462654
20
-0.99999999999999922
10
3.3749999999999982
20
-0.99999999999999978
42
-0.4142135623731113
10
3.324999999999998
20
-0.94999999999999807
10
3.3250000000000011
20
-0.84999999999999765
42
-0.41421356237308526
10
3.3750000000000013
20
-0.79999999999999916
10
3.8657987184109777
20
-0.80000000000000115
42
-0.091246720497476785
10
3.8835984847905767
20
-0.80327561325355246
10
4.3914015152094272
20
-0.99672438674644859
42
0.091246720497480366
10
4.4092012815890271
20
-1
10
5.8000000000000007
20
-1.0000000000000013
42
-0.41421356237309342
10
5.8499999999999996
20
-1.05
10
5.8499999999999996
20
-1.25
42
-0.4142135623731048
10
5.7999999999999998
20
-1.3
0
LWPOLYLINE
5
103
100
AcDbEntity
8
0
100
AcDbPolyline
90
16
70
1
43
0.0
10
3.324999999999998
20
-0.32499999999999962
42
-0.41421356237309914
10
3.3749999999999987
20
-0.27499999999999969
10
3.864737114902268
20
-0.2749999999999998
42
-0.10157008232223105
10
3.8844330798312265
20
-0.27904274849909688
10
4.3905669201687738
20
-0.49595725150090286
42
0.10157008232222733
10
4.4102628850977323
20
-0.5
10
5.8000000000000007
20
-0.50000000000000144
42
-0.41421356237309342
10
5.8499999999999996
20
-0.55000000000000004
10
5.8500000000000005
20
-0.75
42
-0.41421356237310403
10
5.7999999999999998
20
-0.80000000000000004
10
4.4123024508284523
20
-0.79999999999999971
42
-0.12121684478589907
10
4.3891021010949247
20
-0.79429157676400775
10
3.8858978989050756
20
-0.53070842323599199
42
0.12121684478590122
10
3.8626975491715481
20
-0.52499999999999991
10
3.3749999999999987
20
-0.52500000000000069
42
-0.41421356237309709
10
3.324999999999998
20
-0.47499999999999976
0
LWPOLYLINE
5
104
100
AcDbEntity
8
0
100
AcDbPolyline
90
26
70
1
43
0.0
10
4.40587033144923
20
-1.6263032587282567e-18
42
-0.058502400586015864
10
4.3942893050839276
20
0.0013596892657316909
10
3.8807106949160723
20
0.12364031073426995
42
0.058502400586015128
10
3.8691296685507703
20
0.12500000000000161
10
3.2997336501066101
20
0.12500000000000022
42
0.083632095894718761
10
3.2833541494584226
20
0.12224099870362674
10
3.0829573840170572
20
0.052759001296373918
42
-0.083632095894724423
10
3.0665778833688702
20
0.050000000000000426
10
2.8249999999999984
20
0.0500000000000006
42
0.41421356237309642
10
2.7749999999999986
20
5.5511151231257827e-16
10
2.7749999999999986
20
-0.49999999999999933
42
0.41421356237309587
10
2.8249999999999984
20
-0.54999999999999949
10
3.0249999999999986
20
-0.54999999999999938
42
0.41421356237309587
10
3.0749999999999988
20
-0.49999999999999933
10
3.0749999999999988
20
-0.18558402687751824
42
-0.31951304004697012
10
3.1086204993518125
20
-0.13834302817389146
10
3.2833541494584302
20
-0.077759001296373087
42
-0.083632095894721842
10
3.2997336501066163
20
-0.074999999999999775
10
3.864737114902268
20
-0.074999999999998485
42
-0.10157008232222747
10
3.8844330798312265
20
-0.079042748499095622
10
4.3905669201687738
20
-0.29595725150090296
42
0.10157008232222761
10
4.4102628850977323
20
-0.30000000000000016
10
5.7999999999999998
20
-0.29999999999999999
42
0.41421356237310419
10
5.8500000000000005
20
-0.24999999999999994
10
5.8499999999999996
20
-0.05000000000000001
42
0.41421356237309304
10
5.8000000000000007
20
-1.4224732503009818e-15
0
LWPOLYLINE
5
105
100
AcDbEntity
8
0
100
AcDbPolyline
90
16
70
1
43
0.0
10
1.9873024508284507
20
-0.27499999999999969
42
-0.1212168447859029
10
1.9641021010949227
20
-0.26929157676400745
10
1.4608978989050758
20
-0.0057084232359922923
42
0.12121684478590292
10
1.437697549171548
20
-6.9388939039072284e-17
10
0.050000000000000044
20
0
42
0.41421356237309531
10
3.4694469519536142e-17
20
-0.05000000000000001
10
0
20
-0.24999999999999997
42
0.41421356237309542
10
0.050000000000000044
20
-0.29999999999999999
10
1.4397371149022675
20
-0.29999999999999999
42
-0.10157008232222736
10
1.4594330798312261
20
-0.30404274849909713
10
1.9655669201687718
20
-0.52095725150090277
42
0.10157008232222384
10
1.9852628850977303
20
-0.52500000000000002
10
2.4749999999999996
20
-0.52499999999999991
42
0.41421356237309748
10
2.5249999999999995
20
-0.47499999999999987
10
2.5249999999999995
20
-0.32499999999999973
42
0.41421356237309748
10
2.4749999999999996
20
-0.2749999999999998
0
LWPOLYLINE
5
106
100
AcDbEntity
8
0
100
AcDbPolyline
90
16
70
1
43
0.0
10
1.4407987184109734
20
-0.79999999999999982
42
-0.091246720497481823
10
1.4585984847905729
20
-0.80327561325355168
10
1.9664015152094236
20
-0.99672438674644814
42
0.091246720497475481
10
1.9842012815890231
20
-0.99999999999999989
10
2.4749999999999983
20
-0.99999999999999922
42
0.4142135623730861
10
2.5249999999999986
20
-0.95000000000000084
10
2.5250000000000017
20
-0.85000000000000231
42
0.41421356237310725
10
2.4750000000000014
20
-0.80000000000000071
10
1.9882782218537352
20
-0.79999999999999905
42
-0.13052020391575292
10
1.9634712749358938
20
-0.79341215710622204
10
1.4615287250641094
20
-0.5065878428937769
42
0.13052020391575306
10
1.4367217781462678
20
-0.49999999999999989
10
0.050000000000000044
20
-0.5
42
0.41421356237309437
10
-2.6020852139652106e-17
20
-0.55000000000000004
10
0
20
-0.75
42
0.41421356237309498
10
0.050000000000000044
20
-0.80000000000000004
0
LWPOLYLINE
5
107
100
AcDbEntity
8
0
100
AcDbPolyline
90
16
70
1
43
0.0
10
2.4750000000000019
20
-1.3000000000000003
42
-0.41421356237310314
10
2.5250000000000017
20
-1.3500000000000021
10
2.5249999999999986
20
-1.4500000000000006
42
-0.41421356237308854
10
2.4749999999999983
20
-1.4999999999999991
10
1.9842012815890231
20
-1.4999999999999996
42
-0.0912467204974695
10
1.9664015152094236
20
-1.4967243867464481
10
1.4585984847905729
20
-1.3032756132535517
42
0.091246720497481781
10
1.4407987184109734
20
-1.3
10
0.050000000000000031
20
-1.3
42
-0.41421356237309276
10
0
20
-1.25
10
4.3368086899420177e-17
20
-1.05
42
-0.41421356237309476
10
0.050000000000000044
20
-1
10
1.4367217781462678
20
-0.99999999999999989
42
-0.13052020391575325
10
1.4615287250641094
20
-1.0065878428937769
10
1.9634712749358934
20
-1.293412157106222
42
0.13052020391575195
10
1.9882782218537347
20
-1.2999999999999989
0
LWPOLYLINE
5
108
100
AcDbEntity
8
0
100
AcDbPolyline
90
16
70
1
43
0.0
10
2.4749999999999996
20
-1.7750000000000004
42
-0.41421356237309825
10
2.5249999999999995
20
-1.8250000000000006
10
2.5249999999999995
20
-1.9749999999999996
42
-0.41421356237309825
10
2.4749999999999996
20
-2.0249999999999995
10
1.9852628850977299
20
-2.0249999999999995
42
-0.10157008232221962
10
1.9655669201687718
20
-2.0209572515009024
10
1.4594330798312254
20
-1.8040427484990973
42
0.10157008232222782
10
1.4397371149022669
20
-1.8000000000000003
10
0.050000000000000031
20
-1.8000000000000003
42
-0.41421356237309198
10
0
20
-1.7500000000000002
10
6.9388939039072284e-17
20
-1.5500000000000003
42
-0.41421356237309792
10
0.050000000000000044
20
-1.5000000000000002
10
1.437697549171548
20
-1.5000000000000004
42
-0.12121684478590695
10
1.4608978989050758
20
-1.5057084232359927
10
1.9641021010949227
20
-1.7692915767640083
42
0.12121684478590257
10
1.9873024508284507
20
-1.7750000000000004
0
LWPOLYLINE
5
109
100
AcDbEntity
8
0
100
AcDbPolyline
90
26
70
1
43
0.0
10
0.050000000000000031
20
-2.3000000000000003
42
-0.41421356237309198
10
0
20
-2.25
10
6.9388939039072284e-17
20
-2.0500000000000003
42
-0.41421356237309792
10
0.050000000000000044
20
-2
10
1.4397371149022675
20
-2
42
-0.10157008232224127
10
1.4594330798312261
20
-2.004042748499097
10
1.9655669201687713
20
-2.2209572515009031
42
0.10157008232222661
10
1.9852628850977299
20
-2.2250000000000001
10
2.5502663498933837
20
-2.2249999999999996
42
0.083632095894724728
10
2.5666458505415708
20
-2.2222409987036262
10
2.7413795006481854
20
-2.1616569718261074
42
0.31951304004696679
10
2.7749999999999986
20
-2.1144159731224805
10
2.7749999999999986
20
-1.7999999999999998
42
-0.41421356237309992
10
2.8249999999999984
20
-1.75
10
3.0249999999999986
20
-1.7500000000000002
42
-0.41421356237309992
10
3.0749999999999988
20
-1.7999999999999998
10
3.0749999999999988
20
-2.2999999999999994
42
-0.41421356237309992
10
3.0249999999999986
20
-2.3499999999999992
10
2.7834221166311264
20
-2.3499999999999992
42
0.083632095894722092
10
2.7670426159829398
20
-2.3527590012963726
10
2.5666458505415708
20
-2.4222409987036264
42
-0.083632095894723077
10
2.5502663498933842
20
-2.4249999999999998
10
1.9808703314492269
20
-2.4250000000000003
42
-0.058502400586006947
10
1.9692893050839251
20
-2.4236403107342683
10
1.4557106949160736
20
-2.3013596892657318
42
0.058502400586015246
10
1.4441296685507714
20
-2.3000000000000003
0
ENDSEC
0
SECTION
2
OBJECTS
0
DICTIONARY
5
C
100
AcDbDictionary
3
ACAD_GROUP
350
D
3
ACAD_MLINESTYLE
350
17
0
DICTIONARY
5
D
100
AcDbDictionary
0
DICTIONARY
5
1A
330
C
100
AcDbDictionary
0
DICTIONARY
5
17
100
AcDbDictionary
0
ENDSEC
0
EOF
