  0
SECTION
  2
HEADER
  9
$ACADVER
  1
AC1009
  0
ENDSEC
  0
SECTION
  2
ENTITIES
  0
POLYLINE
  8
PEC
 66
1
 39
0
 10
0.000000
 20
0.000000
 30
0.000000
 70
1
  0
VERTEX
  8
PEC
 39
0
 10
0.000000
 20
-0.298300
 30
0.000000
 70
0
 42
0
  0
VERTEX
  8
PEC
 39
0
 10
1.000000
 20
-0.298300
 30
0.000000
 70
0
 42
0
  0
VERTEX
  8
PEC
 39
0
 10
1.000000
 20
0.298300
 30
0.000000
 70
0
 42
0
  0
VERTEX
  8
PEC
 39
0
 10
0.000000
 20
0.298300
 30
0.000000
 70
0
 42
0
  0
SEQEND
  8
PEC
  0
POLYLINE
  8
PEC
 66
1
 39
0
 10
0.000000
 20
0.000000
 30
0.000000
 70
1
  0
VERTEX
  8
PEC
 39
0
 10
1.000000
 20
-0.063500
 30
0.000000
 70
0
 42
0
  0
VERTEX
  8
PEC
 39
0
 10
1.254000
 20
-0.063500
 30
0.000000
 70
0
 42
0
  0
VERTEX
  8
PEC
 39
0
 10
1.254000
 20
0.063500
 30
0.000000
 70
0
 42
0
  0
VERTEX
  8
PEC
 39
0
 10
1.000000
 20
0.063500
 30
0.000000
 70
0
 42
0
  0
SEQEND
  8
PEC
  0
POLYLINE
  8
PEC
 66
1
 39
0
 10
0.000000
 20
0.000000
 30
0.000000
 70
1
  0
VERTEX
  8
PEC
 39
0
 10
1.254000
 20
-0.063500
 30
0.000000
 70
0
 42
0
  0
VERTEX
  8
PEC
 39
0
 10
1.508000
 20
-0.063500
 30
0.000000
 70
0
 42
0
  0
VERTEX
  8
PEC
 39
0
 10
1.508000
 20
0.063500
 30
0.000000
 70
0
 42
0
  0
VERTEX
  8
PEC
 39
0
 10
1.254000
 20
0.063500
 30
0.000000
 70
0
 42
0
  0
SEQEND
  8
PEC
  0
POLYLINE
  8
PEC
 66
1
 39
0
 10
0.000000
 20
0.000000
 30
0.000000
 70
1
  0
VERTEX
  8
PEC
 39
0
 10
1.254000
 20
0.063500
 30
0.000000
 70
0
 42
0
  0
VERTEX
  8
PEC
 39
0
 10
1.508000
 20
0.063500
 30
0.000000
 70
0
 42
0
  0
VERTEX
  8
PEC
 39
0
 10
1.508000
 20
4.117975
 30
0.000000
 70
0
 42
0
  0
VERTEX
  8
PEC
 39
0
 10
1.254000
 20
4.117975
 30
0.000000
 70
0
 42
0
  0
SEQEND
  8
PEC
  0
POLYLINE
  8
PEC
 66
1
 39
0
 10
0.000000
 20
0.000000
 30
0.000000
 70
1
  0
VERTEX
  8
PEC
 39
0
 10
1.254000
 20
-0.100000
 30
0.000000
 70
0
 42
0
  0
VERTEX
  8
PEC
 39
0
 10
1.508000
 20
-0.100000
 30
0.000000
 70
0
 42
0
  0
VERTEX
  8
PEC
 39
0
 10
1.508000
 20
-0.063500
 30
0.000000
 70
0
 42
0
  0
VERTEX
  8
PEC
 39
0
 10
1.254000
 20
-0.063500
 30
0.000000
 70
0
 42
0
  0
SEQEND
  8
PEC
  0
POLYLINE
  8
PEC
 66
1
 39
0
 10
0.000000
 20
0.000000
 30
0.000000
 70
1
  0
VERTEX
  8
PEC
 39
0
 10
1.254000
 20
-0.100000
 30
0.000000
 70
0
 42
0
  0
VERTEX
  8
PEC
 39
0
 10
1.508000
 20
-0.354000
 30
0.000000
 70
0
 42
0
  0
VERTEX
  8
PEC
 39
0
 10
2.524000
 20
-0.354000
 30
0.000000
 70
0
 42
0
  0
VERTEX
  8
PEC
 39
0
 10
2.778000
 20
-0.100000
 30
0.000000
 70
0
 42
0
  0
SEQEND
  8
PEC
  0
POLYLINE
  8
PEC
 66
1
 39
0
 10
0.000000
 20
0.000000
 30
0.000000
 70
1
  0
VERTEX
  8
PEC
 39
0
 10
2.524000
 20
-0.100000
 30
0.000000
 70
0
 42
0
  0
VERTEX
  8
PEC
 39
0
 10
2.778000
 20
-0.100000
 30
0.000000
 70
0
 42
0
  0
VERTEX
  8
PEC
 39
0
 10
2.778000
 20
4.024225
 30
0.000000
 70
0
 42
0
  0
VERTEX
  8
PEC
 39
0
 10
2.524000
 20
4.024225
 30
0.000000
 70
0
 42
0
  0
SEQEND
  8
PEC
  0
POLYLINE
  8
PEC
 66
1
 39
0
 10
0.000000
 20
0.000000
 30
0.000000
 70
1
  0
VERTEX
  8
PEC
 39
0
 10
2.524000
 20
4.024225
 30
0.000000
 70
0
 42
0
  0
VERTEX
  8
PEC
 39
0
 10
2.778000
 20
4.024225
 30
0.000000
 70
0
 42
0
  0
VERTEX
  8
PEC
 39
0
 10
2.778000
 20
4.278225
 30
0.000000
 70
0
 42
0
  0
VERTEX
  8
PEC
 39
0
 10
2.524000
 20
4.278225
 30
0.000000
 70
0
 42
0
  0
SEQEND
  8
PEC
  0
POLYLINE
  8
PEC
 66
1
 39
0
 10
0.000000
 20
0.000000
 30
0.000000
 70
1
  0
VERTEX
  8
PEC
 39
0
 10
3.011471
 20
-0.100000
 30
0.000000
 70
0
 42
0
  0
VERTEX
  8
PEC
 39
0
 10
3.265471
 20
-0.100000
 30
0.000000
 70
0
 42
0
  0
VERTEX
  8
PEC
 39
0
 10
3.265471
 20
4.024225
 30
0.000000
 70
0
 42
0
  0
VERTEX
  8
PEC
 39
0
 10
3.011471
 20
4.024225
 30
0.000000
 70
0
 42
0
  0
SEQEND
  8
PEC
  0
POLYLINE
  8
PEC
 66
1
 39
0
 10
0.000000
 20
0.000000
 30
0.000000
 70
1
  0
VERTEX
  8
PEC
 39
0
 10
3.011471
 20
-0.354000
 30
0.000000
 70
0
 42
0
  0
VERTEX
  8
PEC
 39
0
 10
3.265471
 20
-0.354000
 30
0.000000
 70
0
 42
0
  0
VERTEX
  8
PEC
 39
0
 10
3.265471
 20
-0.100000
 30
0.000000
 70
0
 42
0
  0
VERTEX
  8
PEC
 39
0
 10
3.011471
 20
-0.100000
 30
0.000000
 70
0
 42
0
  0
SEQEND
  8
PEC
  0
POLYLINE
  8
PEC
 66
1
 39
0
 10
0.000000
 20
0.000000
 30
0.000000
 70
1
  0
VERTEX
  8
PEC
 39
0
 10
4.535471
 20
4.024225
 30
0.000000
 70
0
 42
0
  0
VERTEX
  8
PEC
 39
0
 10
4.281471
 20
4.278225
 30
0.000000
 70
0
 42
0
  0
VERTEX
  8
PEC
 39
0
 10
3.265471
 20
4.278225
 30
0.000000
 70
0
 42
0
  0
VERTEX
  8
PEC
 39
0
 10
3.011471
 20
4.024225
 30
0.000000
 70
0
 42
0
  0
SEQEND
  8
PEC
  0
POLYLINE
  8
PEC
 66
1
 39
0
 10
0.000000
 20
0.000000
 30
0.000000
 70
1
  0
VERTEX
  8
PEC
 39
0
 10
4.281471
 20
-0.100000
 30
0.000000
 70
0
 42
0
  0
VERTEX
  8
PEC
 39
0
 10
4.535471
 20
-0.100000
 30
0.000000
 70
0
 42
0
  0
VERTEX
  8
PEC
 39
0
 10
4.535471
 20
4.024225
 30
0.000000
 70
0
 42
0
  0
VERTEX
  8
PEC
 39
0
 10
4.281471
 20
4.024225
 30
0.000000
 70
0
 42
0
  0
SEQEND
  8
PEC
  0
POLYLINE
  8
PEC
 66
1
 39
0
 10
0.000000
 20
0.000000
 30
0.000000
 70
1
  0
VERTEX
  8
PEC
 39
0
 10
4.281471
 20
-0.354000
 30
0.000000
 70
0
 42
0
  0
VERTEX
  8
PEC
 39
0
 10
4.535471
 20
-0.354000
 30
0.000000
 70
0
 42
0
  0
VERTEX
  8
PEC
 39
0
 10
4.535471
 20
-0.100000
 30
0.000000
 70
0
 42
0
  0
VERTEX
  8
PEC
 39
0
 10
4.281471
 20
-0.100000
 30
0.000000
 70
0
 42
0
  0
SEQEND
  8
PEC
  0
POLYLINE
  8
PEC
 66
1
 39
0
 10
0.000000
 20
0.000000
 30
0.000000
 70
1
  0
VERTEX
  8
PEC
 39
0
 10
6.299471
 20
4.024225
 30
0.000000
 70
0
 42
0
  0
VERTEX
  8
PEC
 39
0
 10
6.045471
 20
4.024225
 30
0.000000
 70
0
 42
0
  0
VERTEX
  8
PEC
 39
0
 10
6.045471
 20
-0.100000
 30
0.000000
 70
0
 42
0
  0
VERTEX
  8
PEC
 39
0
 10
6.299471
 20
-0.100000
 30
0.000000
 70
0
 42
0
  0
SEQEND
  8
PEC
  0
POLYLINE
  8
PEC
 66
1
 39
0
 10
0.000000
 20
0.000000
 30
0.000000
 70
1
  0
VERTEX
  8
PEC
 39
0
 10
6.299471
 20
4.278225
 30
0.000000
 70
0
 42
0
  0
VERTEX
  8
PEC
 39
0
 10
6.045471
 20
4.278225
 30
0.000000
 70
0
 42
0
  0
VERTEX
  8
PEC
 39
0
 10
6.045471
 20
4.024225
 30
0.000000
 70
0
 42
0
  0
VERTEX
  8
PEC
 39
0
 10
6.299471
 20
4.024225
 30
0.000000
 70
0
 42
0
  0
SEQEND
  8
PEC
  0
POLYLINE
  8
PEC
 66
1
 39
0
 10
0.000000
 20
0.000000
 30
0.000000
 70
1
  0
VERTEX
  8
PEC
 39
0
 10
4.775471
 20
-0.100000
 30
0.000000
 70
0
 42
0
  0
VERTEX
  8
PEC
 39
0
 10
5.029471
 20
-0.354000
 30
0.000000
 70
0
 42
0
  0
VERTEX
  8
PEC
 39
0
 10
6.045471
 20
-0.354000
 30
0.000000
 70
0
 42
0
  0
VERTEX
  8
PEC
 39
0
 10
6.299471
 20
-0.100000
 30
0.000000
 70
0
 42
0
  0
SEQEND
  8
PEC
  0
POLYLINE
  8
PEC
 66
1
 39
0
 10
0.000000
 20
0.000000
 30
0.000000
 70
1
  0
VERTEX
  8
PEC
 39
0
 10
5.029471
 20
4.024225
 30
0.000000
 70
0
 42
0
  0
VERTEX
  8
PEC
 39
0
 10
4.775471
 20
4.024225
 30
0.000000
 70
0
 42
0
  0
VERTEX
  8
PEC
 39
0
 10
4.775471
 20
-0.100000
 30
0.000000
 70
0
 42
0
  0
VERTEX
  8
PEC
 39
0
 10
5.029471
 20
-0.100000
 30
0.000000
 70
0
 42
0
  0
SEQEND
  8
PEC
  0
POLYLINE
  8
PEC
 66
1
 39
0
 10
0.000000
 20
0.000000
 30
0.000000
 70
1
  0
VERTEX
  8
PEC
 39
0
 10
5.029471
 20
4.278225
 30
0.000000
 70
0
 42
0
  0
VERTEX
  8
PEC
 39
0
 10
4.775471
 20
4.278225
 30
0.000000
 70
0
 42
0
  0
VERTEX
  8
PEC
 39
0
 10
4.775471
 20
4.024225
 30
0.000000
 70
0
 42
0
  0
VERTEX
  8
PEC
 39
0
 10
5.029471
 20
4.024225
 30
0.000000
 70
0
 42
0
  0
SEQEND
  8
PEC
  0
POLYLINE
  8
PEC
 66
1
 39
0
 10
0.000000
 20
0.000000
 30
0.000000
 70
1
  0
VERTEX
  8
PEC
 39
0
 10
6.539471
 20
-0.100000
 30
0.000000
 70
0
 42
0
  0
VERTEX
  8
PEC
 39
0
 10
6.793471
 20
-0.100000
 30
0.000000
 70
0
 42
0
  0
VERTEX
  8
PEC
 39
0
 10
6.793471
 20
4.024225
 30
0.000000
 70
0
 42
0
  0
VERTEX
  8
PEC
 39
0
 10
6.539471
 20
4.024225
 30
0.000000
 70
0
 42
0
  0
SEQEND
  8
PEC
  0
POLYLINE
  8
PEC
 66
1
 39
0
 10
0.000000
 20
0.000000
 30
0.000000
 70
1
  0
VERTEX
  8
PEC
 39
0
 10
6.539471
 20
-0.354000
 30
0.000000
 70
0
 42
0
  0
VERTEX
  8
PEC
 39
0
 10
6.793471
 20
-0.354000
 30
0.000000
 70
0
 42
0
  0
VERTEX
  8
PEC
 39
0
 10
6.793471
 20
-0.100000
 30
0.000000
 70
0
 42
0
  0
VERTEX
  8
PEC
 39
0
 10
6.539471
 20
-0.100000
 30
0.000000
 70
0
 42
0
  0
SEQEND
  8
PEC
  0
POLYLINE
  8
PEC
 66
1
 39
0
 10
0.000000
 20
0.000000
 30
0.000000
 70
1
  0
VERTEX
  8
PEC
 39
0
 10
8.063471
 20
4.024225
 30
0.000000
 70
0
 42
0
  0
VERTEX
  8
PEC
 39
0
 10
7.809471
 20
4.278225
 30
0.000000
 70
0
 42
0
  0
VERTEX
  8
PEC
 39
0
 10
6.793471
 20
4.278225
 30
0.000000
 70
0
 42
0
  0
VERTEX
  8
PEC
 39
0
 10
6.539471
 20
4.024225
 30
0.000000
 70
0
 42
0
  0
SEQEND
  8
PEC
  0
POLYLINE
  8
PEC
 66
1
 39
0
 10
0.000000
 20
0.000000
 30
0.000000
 70
1
  0
VERTEX
  8
PEC
 39
0
 10
7.809471
 20
-0.100000
 30
0.000000
 70
0
 42
0
  0
VERTEX
  8
PEC
 39
0
 10
8.063471
 20
-0.100000
 30
0.000000
 70
0
 42
0
  0
VERTEX
  8
PEC
 39
0
 10
8.063471
 20
4.024225
 30
0.000000
 70
0
 42
0
  0
VERTEX
  8
PEC
 39
0
 10
7.809471
 20
4.024225
 30
0.000000
 70
0
 42
0
  0
SEQEND
  8
PEC
  0
POLYLINE
  8
PEC
 66
1
 39
0
 10
0.000000
 20
0.000000
 30
0.000000
 70
1
  0
VERTEX
  8
PEC
 39
0
 10
7.809471
 20
-0.354000
 30
0.000000
 70
0
 42
0
  0
VERTEX
  8
PEC
 39
0
 10
8.063471
 20
-0.354000
 30
0.000000
 70
0
 42
0
  0
VERTEX
  8
PEC
 39
0
 10
8.063471
 20
-0.100000
 30
0.000000
 70
0
 42
0
  0
VERTEX
  8
PEC
 39
0
 10
7.809471
 20
-0.100000
 30
0.000000
 70
0
 42
0
  0
SEQEND
  8
PEC
  0
POLYLINE
  8
PEC
 66
1
 39
0
 10
0.000000
 20
0.000000
 30
0.000000
 70
1
  0
VERTEX
  8
PEC
 39
0
 10
13.602942
 20
-0.298300
 30
0.000000
 70
0
 42
0
  0
VERTEX
  8
PEC
 39
0
 10
14.602942
 20
-0.298300
 30
0.000000
 70
0
 42
0
  0
VERTEX
  8
PEC
 39
0
 10
14.602942
 20
0.298300
 30
0.000000
 70
0
 42
0
  0
VERTEX
  8
PEC
 39
0
 10
13.602942
 20
0.298300
 30
0.000000
 70
0
 42
0
  0
SEQEND
  8
PEC
  0
POLYLINE
  8
PEC
 66
1
 39
0
 10
0.000000
 20
0.000000
 30
0.000000
 70
1
  0
VERTEX
  8
PEC
 39
0
 10
13.348942
 20
-0.063500
 30
0.000000
 70
0
 42
0
  0
VERTEX
  8
PEC
 39
0
 10
13.602942
 20
-0.063500
 30
0.000000
 70
0
 42
0
  0
VERTEX
  8
PEC
 39
0
 10
13.602942
 20
0.063500
 30
0.000000
 70
0
 42
0
  0
VERTEX
  8
PEC
 39
0
 10
13.348942
 20
0.063500
 30
0.000000
 70
0
 42
0
  0
SEQEND
  8
PEC
  0
POLYLINE
  8
PEC
 66
1
 39
0
 10
0.000000
 20
0.000000
 30
0.000000
 70
1
  0
VERTEX
  8
PEC
 39
0
 10
13.094942
 20
-0.063500
 30
0.000000
 70
0
 42
0
  0
VERTEX
  8
PEC
 39
0
 10
13.348942
 20
-0.063500
 30
0.000000
 70
0
 42
0
  0
VERTEX
  8
PEC
 39
0
 10
13.348942
 20
0.063500
 30
0.000000
 70
0
 42
0
  0
VERTEX
  8
PEC
 39
0
 10
13.094942
 20
0.063500
 30
0.000000
 70
0
 42
0
  0
SEQEND
  8
PEC
  0
POLYLINE
  8
PEC
 66
1
 39
0
 10
0.000000
 20
0.000000
 30
0.000000
 70
1
  0
VERTEX
  8
PEC
 39
0
 10
13.094942
 20
0.063500
 30
0.000000
 70
0
 42
0
  0
VERTEX
  8
PEC
 39
0
 10
13.348942
 20
0.063500
 30
0.000000
 70
0
 42
0
  0
VERTEX
  8
PEC
 39
0
 10
13.348942
 20
4.117975
 30
0.000000
 70
0
 42
0
  0
VERTEX
  8
PEC
 39
0
 10
13.094942
 20
4.117975
 30
0.000000
 70
0
 42
0
  0
SEQEND
  8
PEC
  0
POLYLINE
  8
PEC
 66
1
 39
0
 10
0.000000
 20
0.000000
 30
0.000000
 70
1
  0
VERTEX
  8
PEC
 39
0
 10
13.094942
 20
-0.100000
 30
0.000000
 70
0
 42
0
  0
VERTEX
  8
PEC
 39
0
 10
13.348942
 20
-0.100000
 30
0.000000
 70
0
 42
0
  0
VERTEX
  8
PEC
 39
0
 10
13.348942
 20
-0.063500
 30
0.000000
 70
0
 42
0
  0
VERTEX
  8
PEC
 39
0
 10
13.094942
 20
-0.063500
 30
0.000000
 70
0
 42
0
  0
SEQEND
  8
PEC
  0
POLYLINE
  8
PEC
 66
1
 39
0
 10
0.000000
 20
0.000000
 30
0.000000
 70
1
  0
VERTEX
  8
PEC
 39
0
 10
13.094942
 20
-0.354000
 30
0.000000
 70
0
 42
0
  0
VERTEX
  8
PEC
 39
0
 10
13.348942
 20
-0.100000
 30
0.000000
 70
0
 42
0
  0
VERTEX
  8
PEC
 39
0
 10
11.824942
 20
-0.100000
 30
0.000000
 70
0
 42
0
  0
VERTEX
  8
PEC
 39
0
 10
12.078942
 20
-0.354000
 30
0.000000
 70
0
 42
0
  0
SEQEND
  8
PEC
  0
POLYLINE
  8
PEC
 66
1
 39
0
 10
0.000000
 20
0.000000
 30
0.000000
 70
1
  0
VERTEX
  8
PEC
 39
0
 10
11.824942
 20
-0.100000
 30
0.000000
 70
0
 42
0
  0
VERTEX
  8
PEC
 39
0
 10
12.078942
 20
-0.100000
 30
0.000000
 70
0
 42
0
  0
VERTEX
  8
PEC
 39
0
 10
12.078942
 20
4.024225
 30
0.000000
 70
0
 42
0
  0
VERTEX
  8
PEC
 39
0
 10
11.824942
 20
4.024225
 30
0.000000
 70
0
 42
0
  0
SEQEND
  8
PEC
  0
POLYLINE
  8
PEC
 66
1
 39
0
 10
0.000000
 20
0.000000
 30
0.000000
 70
1
  0
VERTEX
  8
PEC
 39
0
 10
11.824942
 20
4.024225
 30
0.000000
 70
0
 42
0
  0
VERTEX
  8
PEC
 39
0
 10
12.078942
 20
4.024225
 30
0.000000
 70
0
 42
0
  0
VERTEX
  8
PEC
 39
0
 10
12.078942
 20
4.278225
 30
0.000000
 70
0
 42
0
  0
VERTEX
  8
PEC
 39
0
 10
11.824942
 20
4.278225
 30
0.000000
 70
0
 42
0
  0
SEQEND
  8
PEC
  0
POLYLINE
  8
PEC
 66
1
 39
0
 10
0.000000
 20
0.000000
 30
0.000000
 70
1
  0
VERTEX
  8
PEC
 39
0
 10
11.337471
 20
-0.100000
 30
0.000000
 70
0
 42
0
  0
VERTEX
  8
PEC
 39
0
 10
11.591471
 20
-0.100000
 30
0.000000
 70
0
 42
0
  0
VERTEX
  8
PEC
 39
0
 10
11.591471
 20
4.024225
 30
0.000000
 70
0
 42
0
  0
VERTEX
  8
PEC
 39
0
 10
11.337471
 20
4.024225
 30
0.000000
 70
0
 42
0
  0
SEQEND
  8
PEC
  0
POLYLINE
  8
PEC
 66
1
 39
0
 10
0.000000
 20
0.000000
 30
0.000000
 70
1
  0
VERTEX
  8
PEC
 39
0
 10
11.337471
 20
-0.354000
 30
0.000000
 70
0
 42
0
  0
VERTEX
  8
PEC
 39
0
 10
11.591471
 20
-0.354000
 30
0.000000
 70
0
 42
0
  0
VERTEX
  8
PEC
 39
0
 10
11.591471
 20
-0.100000
 30
0.000000
 70
0
 42
0
  0
VERTEX
  8
PEC
 39
0
 10
11.337471
 20
-0.100000
 30
0.000000
 70
0
 42
0
  0
SEQEND
  8
PEC
  0
POLYLINE
  8
PEC
 66
1
 39
0
 10
0.000000
 20
0.000000
 30
0.000000
 70
1
  0
VERTEX
  8
PEC
 39
0
 10
10.321471
 20
4.278225
 30
0.000000
 70
0
 42
0
  0
VERTEX
  8
PEC
 39
0
 10
10.067471
 20
4.024225
 30
0.000000
 70
0
 42
0
  0
VERTEX
  8
PEC
 39
0
 10
11.591471
 20
4.024225
 30
0.000000
 70
0
 42
0
  0
VERTEX
  8
PEC
 39
0
 10
11.337471
 20
4.278225
 30
0.000000
 70
0
 42
0
  0
SEQEND
  8
PEC
  0
POLYLINE
  8
PEC
 66
1
 39
0
 10
0.000000
 20
0.000000
 30
0.000000
 70
1
  0
VERTEX
  8
PEC
 39
0
 10
10.067471
 20
-0.100000
 30
0.000000
 70
0
 42
0
  0
VERTEX
  8
PEC
 39
0
 10
10.321471
 20
-0.100000
 30
0.000000
 70
0
 42
0
  0
VERTEX
  8
PEC
 39
0
 10
10.321471
 20
4.024225
 30
0.000000
 70
0
 42
0
  0
VERTEX
  8
PEC
 39
0
 10
10.067471
 20
4.024225
 30
0.000000
 70
0
 42
0
  0
SEQEND
  8
PEC
  0
POLYLINE
  8
PEC
 66
1
 39
0
 10
0.000000
 20
0.000000
 30
0.000000
 70
1
  0
VERTEX
  8
PEC
 39
0
 10
10.067471
 20
-0.354000
 30
0.000000
 70
0
 42
0
  0
VERTEX
  8
PEC
 39
0
 10
10.321471
 20
-0.354000
 30
0.000000
 70
0
 42
0
  0
VERTEX
  8
PEC
 39
0
 10
10.321471
 20
-0.100000
 30
0.000000
 70
0
 42
0
  0
VERTEX
  8
PEC
 39
0
 10
10.067471
 20
-0.100000
 30
0.000000
 70
0
 42
0
  0
SEQEND
  8
PEC
  0
POLYLINE
  8
PEC
 66
1
 39
0
 10
0.000000
 20
0.000000
 30
0.000000
 70
1
  0
VERTEX
  8
PEC
 39
0
 10
8.557471
 20
4.024225
 30
0.000000
 70
0
 42
0
  0
VERTEX
  8
PEC
 39
0
 10
8.303471
 20
4.024225
 30
0.000000
 70
0
 42
0
  0
VERTEX
  8
PEC
 39
0
 10
8.303471
 20
-0.100000
 30
0.000000
 70
0
 42
0
  0
VERTEX
  8
PEC
 39
0
 10
8.557471
 20
-0.100000
 30
0.000000
 70
0
 42
0
  0
SEQEND
  8
PEC
  0
POLYLINE
  8
PEC
 66
1
 39
0
 10
0.000000
 20
0.000000
 30
0.000000
 70
1
  0
VERTEX
  8
PEC
 39
0
 10
8.557471
 20
4.278225
 30
0.000000
 70
0
 42
0
  0
VERTEX
  8
PEC
 39
0
 10
8.303471
 20
4.278225
 30
0.000000
 70
0
 42
0
  0
VERTEX
  8
PEC
 39
0
 10
8.303471
 20
4.024225
 30
0.000000
 70
0
 42
0
  0
VERTEX
  8
PEC
 39
0
 10
8.557471
 20
4.024225
 30
0.000000
 70
0
 42
0
  0
SEQEND
  8
PEC
  0
POLYLINE
  8
PEC
 66
1
 39
0
 10
0.000000
 20
0.000000
 30
0.000000
 70
1
  0
VERTEX
  8
PEC
 39
0
 10
9.573471
 20
-0.354000
 30
0.000000
 70
0
 42
0
  0
VERTEX
  8
PEC
 39
0
 10
9.827471
 20
-0.100000
 30
0.000000
 70
0
 42
0
  0
VERTEX
  8
PEC
 39
0
 10
8.303471
 20
-0.100000
 30
0.000000
 70
0
 42
0
  0
VERTEX
  8
PEC
 39
0
 10
8.557471
 20
-0.354000
 30
0.000000
 70
0
 42
0
  0
SEQEND
  8
PEC
  0
POLYLINE
  8
PEC
 66
1
 39
0
 10
0.000000
 20
0.000000
 30
0.000000
 70
1
  0
VERTEX
  8
PEC
 39
0
 10
9.827471
 20
4.024225
 30
0.000000
 70
0
 42
0
  0
VERTEX
  8
PEC
 39
0
 10
9.573471
 20
4.024225
 30
0.000000
 70
0
 42
0
  0
VERTEX
  8
PEC
 39
0
 10
9.573471
 20
-0.100000
 30
0.000000
 70
0
 42
0
  0
VERTEX
  8
PEC
 39
0
 10
9.827471
 20
-0.100000
 30
0.000000
 70
0
 42
0
  0
SEQEND
  8
PEC
  0
POLYLINE
  8
PEC
 66
1
 39
0
 10
0.000000
 20
0.000000
 30
0.000000
 70
1
  0
VERTEX
  8
PEC
 39
0
 10
9.827471
 20
4.278225
 30
0.000000
 70
0
 42
0
  0
VERTEX
  8
PEC
 39
0
 10
9.573471
 20
4.278225
 30
0.000000
 70
0
 42
0
  0
VERTEX
  8
PEC
 39
0
 10
9.573471
 20
4.024225
 30
0.000000
 70
0
 42
0
  0
VERTEX
  8
PEC
 39
0
 10
9.827471
 20
4.024225
 30
0.000000
 70
0
 42
0
  0
SEQEND
  8
PEC
  0
POLYLINE
  8
ITERA
 66
1
 39
0
 10
0.000000
 20
0.000000
 30
0.000000
 70
1
  0
VERTEX
  8
ITERA
 39
0
 10
-0.358000
 20
-6.286338
 30
0.000000
 70
0
 42
0
  0
VERTEX
  8
ITERA
 39
0
 10
14.960942
 20
-6.286338
 30
0.000000
 70
0
 42
0
  0
VERTEX
  8
ITERA
 39
0
 10
14.960942
 20
10.210563
 30
0.000000
 70
0
 42
0
  0
VERTEX
  8
ITERA
 39
0
 10
-0.358000
 20
10.210563
 30
0.000000
 70
0
 42
0
  0
SEQEND
  8
ITERA
  0
ENDSEC
  0
EOF
