999
dxf-class
0
SECTION
2
HEADER
9
$ACADVER
1
AC1009
9
$EXTMIN
10
0
20
0
30
0
9
$EXTMAX
10
1000
20
1000
30
0
9
$MEASUREMENT
70
1
9
$INSUNITS
70
4
0
ENDSEC
0
SECTION
2
ENTITIES
0
LINE
8
Hilbert
10
0.1875
20
0.1875
11
0.1875
21
0.1875
0
LINE
8
Hilbert
10
0.1875
20
0.1875
11
0.1875
21
0.1875
0
LINE
8
Hilbert
10
0.1875
20
0.1875
11
0.1875
21
0.1875
0
LINE
8
Hilbert
10
0.1875
20
0.1875
11
0.5625
21
0.1875
0
LINE
8
Hilbert
10
0.5625
20
0.1875
11
0.5625
21
0.5625
0
LINE
8
Hilbert
10
0.5625
20
0.5625
11
0.1875
21
0.5625
0
LINE
8
Hilbert
10
0.1875
20
0.5625
11
0.1875
21
0.9375
0
LINE
8
Hilbert
10
0.1875
20
0.9375
11
0.1875
21
1.3125
0
LINE
8
Hilbert
10
0.1875
20
1.3125
11
0.5625
21
1.3125
0
LINE
8
Hilbert
10
0.5625
20
1.3125
11
0.5625
21
0.9375
0
LINE
8
Hilbert
10
0.5625
20
0.9375
11
0.9375
21
0.9375
0
LINE
8
Hilbert
10
0.9375
20
0.9375
11
0.9375
21
1.3125
0
LINE
8
Hilbert
10
0.9375
20
1.3125
11
1.3125
21
1.3125
0
LINE
8
Hilbert
10
1.3125
20
1.3125
11
1.3125
21
0.9375
0
LINE
8
Hilbert
10
1.3125
20
0.9375
11
1.3125
21
0.5625
0
LINE
8
Hilbert
10
1.3125
20
0.5625
11
0.9375
21
0.5625
0
LINE
8
Hilbert
10
0.9375
20
0.5625
11
0.9375
21
0.1875
0
LINE
8
Hilbert
10
0.9375
20
0.1875
11
1.3125
21
0.1875
0
LINE
8
Hilbert
10
1.3125
20
0.1875
11
1.6875
21
0.1875
0
LINE
8
Hilbert
10
1.6875
20
0.1875
11
1.6875
21
0.5625
0
LINE
8
Hilbert
10
1.6875
20
0.5625
11
2.0625
21
0.5625
0
LINE
8
Hilbert
10
2.0625
20
0.5625
11
2.0625
21
0.1875
0
LINE
8
Hilbert
10
2.0625
20
0.1875
11
2.4375
21
0.1875
0
LINE
8
Hilbert
10
2.4375
20
0.1875
11
2.8125
21
0.1875
0
LINE
8
Hilbert
10
2.8125
20
0.1875
11
2.8125
21
0.5625
0
LINE
8
Hilbert
10
2.8125
20
0.5625
11
2.4375
21
0.5625
0
LINE
8
Hilbert
10
2.4375
20
0.5625
11
2.4375
21
0.9375
0
LINE
8
Hilbert
10
2.4375
20
0.9375
11
2.8125
21
0.9375
0
LINE
8
Hilbert
10
2.8125
20
0.9375
11
2.8125
21
1.3125
0
LINE
8
Hilbert
10
2.8125
20
1.3125
11
2.4375
21
1.3125
0
LINE
8
Hilbert
10
2.4375
20
1.3125
11
2.0625
21
1.3125
0
LINE
8
Hilbert
10
2.0625
20
1.3125
11
2.0625
21
0.9375
0
LINE
8
Hilbert
10
2.0625
20
0.9375
11
1.6875
21
0.9375
0
LINE
8
Hilbert
10
1.6875
20
0.9375
11
1.6875
21
1.3125
0
LINE
8
Hilbert
10
1.6875
20
1.3125
11
1.6875
21
1.6875
0
LINE
8
Hilbert
10
1.6875
20
1.6875
11
1.6875
21
2.0625
0
LINE
8
Hilbert
10
1.6875
20
2.0625
11
2.0625
21
2.0625
0
LINE
8
Hilbert
10
2.0625
20
2.0625
11
2.0625
21
1.6875
0
LINE
8
Hilbert
10
2.0625
20
1.6875
11
2.4375
21
1.6875
0
LINE
8
Hilbert
10
2.4375
20
1.6875
11
2.8125
21
1.6875
0
LINE
8
Hilbert
10
2.8125
20
1.6875
11
2.8125
21
2.0625
0
LINE
8
Hilbert
10
2.8125
20
2.0625
11
2.4375
21
2.0625
0
LINE
8
Hilbert
10
2.4375
20
2.0625
11
2.4375
21
2.4375
0
LINE
8
Hilbert
10
2.4375
20
2.4375
11
2.8125
21
2.4375
0
LINE
8
Hilbert
10
2.8125
20
2.4375
11
2.8125
21
2.8125
0
LINE
8
Hilbert
10
2.8125
20
2.8125
11
2.4375
21
2.8125
0
LINE
8
Hilbert
10
2.4375
20
2.8125
11
2.0625
21
2.8125
0
LINE
8
Hilbert
10
2.0625
20
2.8125
11
2.0625
21
2.4375
0
LINE
8
Hilbert
10
2.0625
20
2.4375
11
1.6875
21
2.4375
0
LINE
8
Hilbert
10
1.6875
20
2.4375
11
1.6875
21
2.8125
0
LINE
8
Hilbert
10
1.6875
20
2.8125
11
1.3125
21
2.8125
0
LINE
8
Hilbert
10
1.3125
20
2.8125
11
0.9375
21
2.8125
0
LINE
8
Hilbert
10
0.9375
20
2.8125
11
0.9375
21
2.4375
0
LINE
8
Hilbert
10
0.9375
20
2.4375
11
1.3125
21
2.4375
0
LINE
8
Hilbert
10
1.3125
20
2.4375
11
1.3125
21
2.0625
0
LINE
8
Hilbert
10
1.3125
20
2.0625
11
1.3125
21
1.6875
0
LINE
8
Hilbert
10
1.3125
20
1.6875
11
0.9375
21
1.6875
0
LINE
8
Hilbert
10
0.9375
20
1.6875
11
0.9375
21
2.0625
0
LINE
8
Hilbert
10
0.9375
20
2.0625
11
0.5625
21
2.0625
0
LINE
8
Hilbert
10
0.5625
20
2.0625
11
0.5625
21
1.6875
0
LINE
8
Hilbert
10
0.5625
20
1.6875
11
0.1875
21
1.6875
0
LINE
8
Hilbert
10
0.1875
20
1.6875
11
0.1875
21
2.0625
0
LINE
8
Hilbert
10
0.1875
20
2.0625
11
0.1875
21
2.4375
0
LINE
8
Hilbert
10
0.1875
20
2.4375
11
0.5625
21
2.4375
0
LINE
8
Hilbert
10
0.5625
20
2.4375
11
0.5625
21
2.8125
0
LINE
8
Hilbert
10
0.5625
20
2.8125
11
0.1875
21
2.8125
0
LINE
8
Hilbert
10
0.1875
20
2.8125
11
0.1875
21
3.1875
0
LINE
8
Hilbert
10
0.1875
20
3.1875
11
0.1875
21
3.5625
0
LINE
8
Hilbert
10
0.1875
20
3.5625
11
0.5625
21
3.5625
0
LINE
8
Hilbert
10
0.5625
20
3.5625
11
0.5625
21
3.1875
0
LINE
8
Hilbert
10
0.5625
20
3.1875
11
0.9375
21
3.1875
0
LINE
8
Hilbert
10
0.9375
20
3.1875
11
1.3125
21
3.1875
0
LINE
8
Hilbert
10
1.3125
20
3.1875
11
1.3125
21
3.5625
0
LINE
8
Hilbert
10
1.3125
20
3.5625
11
0.9375
21
3.5625
0
LINE
8
Hilbert
10
0.9375
20
3.5625
11
0.9375
21
3.9375
0
LINE
8
Hilbert
10
0.9375
20
3.9375
11
1.3125
21
3.9375
0
LINE
8
Hilbert
10
1.3125
20
3.9375
11
1.3125
21
4.3125
0
LINE
8
Hilbert
10
1.3125
20
4.3125
11
0.9375
21
4.3125
0
LINE
8
Hilbert
10
0.9375
20
4.3125
11
0.5625
21
4.3125
0
LINE
8
Hilbert
10
0.5625
20
4.3125
11
0.5625
21
3.9375
0
LINE
8
Hilbert
10
0.5625
20
3.9375
11
0.1875
21
3.9375
0
LINE
8
Hilbert
10
0.1875
20
3.9375
11
0.1875
21
4.3125
0
LINE
8
Hilbert
10
0.1875
20
4.3125
11
0.1875
21
4.6875
0
LINE
8
Hilbert
10
0.1875
20
4.6875
11
0.5625
21
4.6875
0
LINE
8
Hilbert
10
0.5625
20
4.6875
11
0.5625
21
5.0625
0
LINE
8
Hilbert
10
0.5625
20
5.0625
11
0.1875
21
5.0625
0
LINE
8
Hilbert
10
0.1875
20
5.0625
11
0.1875
21
5.4375
0
LINE
8
Hilbert
10
0.1875
20
5.4375
11
0.1875
21
5.8125
0
LINE
8
Hilbert
10
0.1875
20
5.8125
11
0.5625
21
5.8125
0
LINE
8
Hilbert
10
0.5625
20
5.8125
11
0.5625
21
5.4375
0
LINE
8
Hilbert
10
0.5625
20
5.4375
11
0.9375
21
5.4375
0
LINE
8
Hilbert
10
0.9375
20
5.4375
11
0.9375
21
5.8125
0
LINE
8
Hilbert
10
0.9375
20
5.8125
11
1.3125
21
5.8125
0
LINE
8
Hilbert
10
1.3125
20
5.8125
11
1.3125
21
5.4375
0
LINE
8
Hilbert
10
1.3125
20
5.4375
11
1.3125
21
5.0625
0
LINE
8
Hilbert
10
1.3125
20
5.0625
11
0.9375
21
5.0625
0
LINE
8
Hilbert
10
0.9375
20
5.0625
11
0.9375
21
4.6875
0
LINE
8
Hilbert
10
0.9375
20
4.6875
11
1.3125
21
4.6875
0
LINE
8
Hilbert
10
1.3125
20
4.6875
11
1.6875
21
4.6875
0
LINE
8
Hilbert
10
1.6875
20
4.6875
11
2.0625
21
4.6875
0
LINE
8
Hilbert
10
2.0625
20
4.6875
11
2.0625
21
5.0625
0
LINE
8
Hilbert
10
2.0625
20
5.0625
11
1.6875
21
5.0625
0
LINE
8
Hilbert
10
1.6875
20
5.0625
11
1.6875
21
5.4375
0
LINE
8
Hilbert
10
1.6875
20
5.4375
11
1.6875
21
5.8125
0
LINE
8
Hilbert
10
1.6875
20
5.8125
11
2.0625
21
5.8125
0
LINE
8
Hilbert
10
2.0625
20
5.8125
11
2.0625
21
5.4375
0
LINE
8
Hilbert
10
2.0625
20
5.4375
11
2.4375
21
5.4375
0
LINE
8
Hilbert
10
2.4375
20
5.4375
11
2.4375
21
5.8125
0
LINE
8
Hilbert
10
2.4375
20
5.8125
11
2.8125
21
5.8125
0
LINE
8
Hilbert
10
2.8125
20
5.8125
11
2.8125
21
5.4375
0
LINE
8
Hilbert
10
2.8125
20
5.4375
11
2.8125
21
5.0625
0
LINE
8
Hilbert
10
2.8125
20
5.0625
11
2.4375
21
5.0625
0
LINE
8
Hilbert
10
2.4375
20
5.0625
11
2.4375
21
4.6875
0
LINE
8
Hilbert
10
2.4375
20
4.6875
11
2.8125
21
4.6875
0
LINE
8
Hilbert
10
2.8125
20
4.6875
11
2.8125
21
4.3125
0
LINE
8
Hilbert
10
2.8125
20
4.3125
11
2.8125
21
3.9375
0
LINE
8
Hilbert
10
2.8125
20
3.9375
11
2.4375
21
3.9375
0
LINE
8
Hilbert
10
2.4375
20
3.9375
11
2.4375
21
4.3125
0
LINE
8
Hilbert
10
2.4375
20
4.3125
11
2.0625
21
4.3125
0
LINE
8
Hilbert
10
2.0625
20
4.3125
11
1.6875
21
4.3125
0
LINE
8
Hilbert
10
1.6875
20
4.3125
11
1.6875
21
3.9375
0
LINE
8
Hilbert
10
1.6875
20
3.9375
11
2.0625
21
3.9375
0
LINE
8
Hilbert
10
2.0625
20
3.9375
11
2.0625
21
3.5625
0
LINE
8
Hilbert
10
2.0625
20
3.5625
11
1.6875
21
3.5625
0
LINE
8
Hilbert
10
1.6875
20
3.5625
11
1.6875
21
3.1875
0
LINE
8
Hilbert
10
1.6875
20
3.1875
11
2.0625
21
3.1875
0
LINE
8
Hilbert
10
2.0625
20
3.1875
11
2.4375
21
3.1875
0
LINE
8
Hilbert
10
2.4375
20
3.1875
11
2.4375
21
3.5625
0
LINE
8
Hilbert
10
2.4375
20
3.5625
11
2.8125
21
3.5625
0
LINE
8
Hilbert
10
2.8125
20
3.5625
11
2.8125
21
3.1875
0
LINE
8
Hilbert
10
2.8125
20
3.1875
11
3.1875
21
3.1875
0
LINE
8
Hilbert
10
3.1875
20
3.1875
11
3.1875
21
3.5625
0
LINE
8
Hilbert
10
3.1875
20
3.5625
11
3.5625
21
3.5625
0
LINE
8
Hilbert
10
3.5625
20
3.5625
11
3.5625
21
3.1875
0
LINE
8
Hilbert
10
3.5625
20
3.1875
11
3.9375
21
3.1875
0
LINE
8
Hilbert
10
3.9375
20
3.1875
11
4.3125
21
3.1875
0
LINE
8
Hilbert
10
4.3125
20
3.1875
11
4.3125
21
3.5625
0
LINE
8
Hilbert
10
4.3125
20
3.5625
11
3.9375
21
3.5625
0
LINE
8
Hilbert
10
3.9375
20
3.5625
11
3.9375
21
3.9375
0
LINE
8
Hilbert
10
3.9375
20
3.9375
11
4.3125
21
3.9375
0
LINE
8
Hilbert
10
4.3125
20
3.9375
11
4.3125
21
4.3125
0
LINE
8
Hilbert
10
4.3125
20
4.3125
11
3.9375
21
4.3125
0
LINE
8
Hilbert
10
3.9375
20
4.3125
11
3.5625
21
4.3125
0
LINE
8
Hilbert
10
3.5625
20
4.3125
11
3.5625
21
3.9375
0
LINE
8
Hilbert
10
3.5625
20
3.9375
11
3.1875
21
3.9375
0
LINE
8
Hilbert
10
3.1875
20
3.9375
11
3.1875
21
4.3125
0
LINE
8
Hilbert
10
3.1875
20
4.3125
11
3.1875
21
4.6875
0
LINE
8
Hilbert
10
3.1875
20
4.6875
11
3.5625
21
4.6875
0
LINE
8
Hilbert
10
3.5625
20
4.6875
11
3.5625
21
5.0625
0
LINE
8
Hilbert
10
3.5625
20
5.0625
11
3.1875
21
5.0625
0
LINE
8
Hilbert
10
3.1875
20
5.0625
11
3.1875
21
5.4375
0
LINE
8
Hilbert
10
3.1875
20
5.4375
11
3.1875
21
5.8125
0
LINE
8
Hilbert
10
3.1875
20
5.8125
11
3.5625
21
5.8125
0
LINE
8
Hilbert
10
3.5625
20
5.8125
11
3.5625
21
5.4375
0
LINE
8
Hilbert
10
3.5625
20
5.4375
11
3.9375
21
5.4375
0
LINE
8
Hilbert
10
3.9375
20
5.4375
11
3.9375
21
5.8125
0
LINE
8
Hilbert
10
3.9375
20
5.8125
11
4.3125
21
5.8125
0
LINE
8
Hilbert
10
4.3125
20
5.8125
11
4.3125
21
5.4375
0
LINE
8
Hilbert
10
4.3125
20
5.4375
11
4.3125
21
5.0625
0
LINE
8
Hilbert
10
4.3125
20
5.0625
11
3.9375
21
5.0625
0
LINE
8
Hilbert
10
3.9375
20
5.0625
11
3.9375
21
4.6875
0
LINE
8
Hilbert
10
3.9375
20
4.6875
11
4.3125
21
4.6875
0
LINE
8
Hilbert
10
4.3125
20
4.6875
11
4.6875
21
4.6875
0
LINE
8
Hilbert
10
4.6875
20
4.6875
11
5.0625
21
4.6875
0
LINE
8
Hilbert
10
5.0625
20
4.6875
11
5.0625
21
5.0625
0
LINE
8
Hilbert
10
5.0625
20
5.0625
11
4.6875
21
5.0625
0
LINE
8
Hilbert
10
4.6875
20
5.0625
11
4.6875
21
5.4375
0
LINE
8
Hilbert
10
4.6875
20
5.4375
11
4.6875
21
5.8125
0
LINE
8
Hilbert
10
4.6875
20
5.8125
11
5.0625
21
5.8125
0
LINE
8
Hilbert
10
5.0625
20
5.8125
11
5.0625
21
5.4375
0
LINE
8
Hilbert
10
5.0625
20
5.4375
11
5.4375
21
5.4375
0
LINE
8
Hilbert
10
5.4375
20
5.4375
11
5.4375
21
5.8125
0
LINE
8
Hilbert
10
5.4375
20
5.8125
11
5.8125
21
5.8125
0
LINE
8
Hilbert
10
5.8125
20
5.8125
11
5.8125
21
5.4375
0
LINE
8
Hilbert
10
5.8125
20
5.4375
11
5.8125
21
5.0625
0
LINE
8
Hilbert
10
5.8125
20
5.0625
11
5.4375
21
5.0625
0
LINE
8
Hilbert
10
5.4375
20
5.0625
11
5.4375
21
4.6875
0
LINE
8
Hilbert
10
5.4375
20
4.6875
11
5.8125
21
4.6875
0
LINE
8
Hilbert
10
5.8125
20
4.6875
11
5.8125
21
4.3125
0
LINE
8
Hilbert
10
5.8125
20
4.3125
11
5.8125
21
3.9375
0
LINE
8
Hilbert
10
5.8125
20
3.9375
11
5.4375
21
3.9375
0
LINE
8
Hilbert
10
5.4375
20
3.9375
11
5.4375
21
4.3125
0
LINE
8
Hilbert
10
5.4375
20
4.3125
11
5.0625
21
4.3125
0
LINE
8
Hilbert
10
5.0625
20
4.3125
11
4.6875
21
4.3125
0
LINE
8
Hilbert
10
4.6875
20
4.3125
11
4.6875
21
3.9375
0
LINE
8
Hilbert
10
4.6875
20
3.9375
11
5.0625
21
3.9375
0
LINE
8
Hilbert
10
5.0625
20
3.9375
11
5.0625
21
3.5625
0
LINE
8
Hilbert
10
5.0625
20
3.5625
11
4.6875
21
3.5625
0
LINE
8
Hilbert
10
4.6875
20
3.5625
11
4.6875
21
3.1875
0
LINE
8
Hilbert
10
4.6875
20
3.1875
11
5.0625
21
3.1875
0
LINE
8
Hilbert
10
5.0625
20
3.1875
11
5.4375
21
3.1875
0
LINE
8
Hilbert
10
5.4375
20
3.1875
11
5.4375
21
3.5625
0
LINE
8
Hilbert
10
5.4375
20
3.5625
11
5.8125
21
3.5625
0
LINE
8
Hilbert
10
5.8125
20
3.5625
11
5.8125
21
3.1875
0
LINE
8
Hilbert
10
5.8125
20
3.1875
11
5.8125
21
2.8125
0
LINE
8
Hilbert
10
5.8125
20
2.8125
11
5.4375
21
2.8125
0
LINE
8
Hilbert
10
5.4375
20
2.8125
11
5.4375
21
2.4375
0
LINE
8
Hilbert
10
5.4375
20
2.4375
11
5.8125
21
2.4375
0
LINE
8
Hilbert
10
5.8125
20
2.4375
11
5.8125
21
2.0625
0
LINE
8
Hilbert
10
5.8125
20
2.0625
11
5.8125
21
1.6875
0
LINE
8
Hilbert
10
5.8125
20
1.6875
11
5.4375
21
1.6875
0
LINE
8
Hilbert
10
5.4375
20
1.6875
11
5.4375
21
2.0625
0
LINE
8
Hilbert
10
5.4375
20
2.0625
11
5.0625
21
2.0625
0
LINE
8
Hilbert
10
5.0625
20
2.0625
11
5.0625
21
1.6875
0
LINE
8
Hilbert
10
5.0625
20
1.6875
11
4.6875
21
1.6875
0
LINE
8
Hilbert
10
4.6875
20
1.6875
11
4.6875
21
2.0625
0
LINE
8
Hilbert
10
4.6875
20
2.0625
11
4.6875
21
2.4375
0
LINE
8
Hilbert
10
4.6875
20
2.4375
11
5.0625
21
2.4375
0
LINE
8
Hilbert
10
5.0625
20
2.4375
11
5.0625
21
2.8125
0
LINE
8
Hilbert
10
5.0625
20
2.8125
11
4.6875
21
2.8125
0
LINE
8
Hilbert
10
4.6875
20
2.8125
11
4.3125
21
2.8125
0
LINE
8
Hilbert
10
4.3125
20
2.8125
11
4.3125
21
2.4375
0
LINE
8
Hilbert
10
4.3125
20
2.4375
11
3.9375
21
2.4375
0
LINE
8
Hilbert
10
3.9375
20
2.4375
11
3.9375
21
2.8125
0
LINE
8
Hilbert
10
3.9375
20
2.8125
11
3.5625
21
2.8125
0
LINE
8
Hilbert
10
3.5625
20
2.8125
11
3.1875
21
2.8125
0
LINE
8
Hilbert
10
3.1875
20
2.8125
11
3.1875
21
2.4375
0
LINE
8
Hilbert
10
3.1875
20
2.4375
11
3.5625
21
2.4375
0
LINE
8
Hilbert
10
3.5625
20
2.4375
11
3.5625
21
2.0625
0
LINE
8
Hilbert
10
3.5625
20
2.0625
11
3.1875
21
2.0625
0
LINE
8
Hilbert
10
3.1875
20
2.0625
11
3.1875
21
1.6875
0
LINE
8
Hilbert
10
3.1875
20
1.6875
11
3.5625
21
1.6875
0
LINE
8
Hilbert
10
3.5625
20
1.6875
11
3.9375
21
1.6875
0
LINE
8
Hilbert
10
3.9375
20
1.6875
11
3.9375
21
2.0625
0
LINE
8
Hilbert
10
3.9375
20
2.0625
11
4.3125
21
2.0625
0
LINE
8
Hilbert
10
4.3125
20
2.0625
11
4.3125
21
1.6875
0
LINE
8
Hilbert
10
4.3125
20
1.6875
11
4.3125
21
1.3125
0
LINE
8
Hilbert
10
4.3125
20
1.3125
11
4.3125
21
0.9375
0
LINE
8
Hilbert
10
4.3125
20
0.9375
11
3.9375
21
0.9375
0
LINE
8
Hilbert
10
3.9375
20
0.9375
11
3.9375
21
1.3125
0
LINE
8
Hilbert
10
3.9375
20
1.3125
11
3.5625
21
1.3125
0
LINE
8
Hilbert
10
3.5625
20
1.3125
11
3.1875
21
1.3125
0
LINE
8
Hilbert
10
3.1875
20
1.3125
11
3.1875
21
0.9375
0
LINE
8
Hilbert
10
3.1875
20
0.9375
11
3.5625
21
0.9375
0
LINE
8
Hilbert
10
3.5625
20
0.9375
11
3.5625
21
0.5625
0
LINE
8
Hilbert
10
3.5625
20
0.5625
11
3.1875
21
0.5625
0
LINE
8
Hilbert
10
3.1875
20
0.5625
11
3.1875
21
0.1875
0
LINE
8
Hilbert
10
3.1875
20
0.1875
11
3.5625
21
0.1875
0
LINE
8
Hilbert
10
3.5625
20
0.1875
11
3.9375
21
0.1875
0
LINE
8
Hilbert
10
3.9375
20
0.1875
11
3.9375
21
0.5625
0
LINE
8
Hilbert
10
3.9375
20
0.5625
11
4.3125
21
0.5625
0
LINE
8
Hilbert
10
4.3125
20
0.5625
11
4.3125
21
0.1875
0
LINE
8
Hilbert
10
4.3125
20
0.1875
11
4.6875
21
0.1875
0
LINE
8
Hilbert
10
4.6875
20
0.1875
11
5.0625
21
0.1875
0
LINE
8
Hilbert
10
5.0625
20
0.1875
11
5.0625
21
0.5625
0
LINE
8
Hilbert
10
5.0625
20
0.5625
11
4.6875
21
0.5625
0
LINE
8
Hilbert
10
4.6875
20
0.5625
11
4.6875
21
0.9375
0
LINE
8
Hilbert
10
4.6875
20
0.9375
11
4.6875
21
1.3125
0
LINE
8
Hilbert
10
4.6875
20
1.3125
11
5.0625
21
1.3125
0
LINE
8
Hilbert
10
5.0625
20
1.3125
11
5.0625
21
0.9375
0
LINE
8
Hilbert
10
5.0625
20
0.9375
11
5.4375
21
0.9375
0
LINE
8
Hilbert
10
5.4375
20
0.9375
11
5.4375
21
1.3125
0
LINE
8
Hilbert
10
5.4375
20
1.3125
11
5.8125
21
1.3125
0
LINE
8
Hilbert
10
5.8125
20
1.3125
11
5.8125
21
0.9375
0
LINE
8
Hilbert
10
5.8125
20
0.9375
11
5.8125
21
0.5625
0
LINE
8
Hilbert
10
5.8125
20
0.5625
11
5.4375
21
0.5625
0
LINE
8
Hilbert
10
5.4375
20
0.5625
11
5.4375
21
0.1875
0
LINE
8
Hilbert
10
5.4375
20
0.1875
11
5.8125
21
0.1875
0
LINE
8
Hilbert
10
5.8125
20
0.1875
11
6.1875
21
0.1875
0
LINE
8
Hilbert
10
6.1875
20
0.1875
11
6.1875
21
0.5625
0
LINE
8
Hilbert
10
6.1875
20
0.5625
11
6.5625
21
0.5625
0
LINE
8
Hilbert
10
6.5625
20
0.5625
11
6.5625
21
0.1875
0
LINE
8
Hilbert
10
6.5625
20
0.1875
11
6.9375
21
0.1875
0
LINE
8
Hilbert
10
6.9375
20
0.1875
11
7.3125
21
0.1875
0
LINE
8
Hilbert
10
7.3125
20
0.1875
11
7.3125
21
0.5625
0
LINE
8
Hilbert
10
7.3125
20
0.5625
11
6.9375
21
0.5625
0
LINE
8
Hilbert
10
6.9375
20
0.5625
11
6.9375
21
0.9375
0
LINE
8
Hilbert
10
6.9375
20
0.9375
11
7.3125
21
0.9375
0
LINE
8
Hilbert
10
7.3125
20
0.9375
11
7.3125
21
1.3125
0
LINE
8
Hilbert
10
7.3125
20
1.3125
11
6.9375
21
1.3125
0
LINE
8
Hilbert
10
6.9375
20
1.3125
11
6.5625
21
1.3125
0
LINE
8
Hilbert
10
6.5625
20
1.3125
11
6.5625
21
0.9375
0
LINE
8
Hilbert
10
6.5625
20
0.9375
11
6.1875
21
0.9375
0
LINE
8
Hilbert
10
6.1875
20
0.9375
11
6.1875
21
1.3125
0
LINE
8
Hilbert
10
6.1875
20
1.3125
11
6.1875
21
1.6875
0
LINE
8
Hilbert
10
6.1875
20
1.6875
11
6.5625
21
1.6875
0
LINE
8
Hilbert
10
6.5625
20
1.6875
11
6.5625
21
2.0625
0
LINE
8
Hilbert
10
6.5625
20
2.0625
11
6.1875
21
2.0625
0
LINE
8
Hilbert
10
6.1875
20
2.0625
11
6.1875
21
2.4375
0
LINE
8
Hilbert
10
6.1875
20
2.4375
11
6.1875
21
2.8125
0
LINE
8
Hilbert
10
6.1875
20
2.8125
11
6.5625
21
2.8125
0
LINE
8
Hilbert
10
6.5625
20
2.8125
11
6.5625
21
2.4375
0
LINE
8
Hilbert
10
6.5625
20
2.4375
11
6.9375
21
2.4375
0
LINE
8
Hilbert
10
6.9375
20
2.4375
11
6.9375
21
2.8125
0
LINE
8
Hilbert
10
6.9375
20
2.8125
11
7.3125
21
2.8125
0
LINE
8
Hilbert
10
7.3125
20
2.8125
11
7.3125
21
2.4375
0
LINE
8
Hilbert
10
7.3125
20
2.4375
11
7.3125
21
2.0625
0
LINE
8
Hilbert
10
7.3125
20
2.0625
11
6.9375
21
2.0625
0
LINE
8
Hilbert
10
6.9375
20
2.0625
11
6.9375
21
1.6875
0
LINE
8
Hilbert
10
6.9375
20
1.6875
11
7.3125
21
1.6875
0
LINE
8
Hilbert
10
7.3125
20
1.6875
11
7.6875
21
1.6875
0
LINE
8
Hilbert
10
7.6875
20
1.6875
11
8.0625
21
1.6875
0
LINE
8
Hilbert
10
8.0625
20
1.6875
11
8.0625
21
2.0625
0
LINE
8
Hilbert
10
8.0625
20
2.0625
11
7.6875
21
2.0625
0
LINE
8
Hilbert
10
7.6875
20
2.0625
11
7.6875
21
2.4375
0
LINE
8
Hilbert
10
7.6875
20
2.4375
11
7.6875
21
2.8125
0
LINE
8
Hilbert
10
7.6875
20
2.8125
11
8.0625
21
2.8125
0
LINE
8
Hilbert
10
8.0625
20
2.8125
11
8.0625
21
2.4375
0
LINE
8
Hilbert
10
8.0625
20
2.4375
11
8.4375
21
2.4375
0
LINE
8
Hilbert
10
8.4375
20
2.4375
11
8.4375
21
2.8125
0
LINE
8
Hilbert
10
8.4375
20
2.8125
11
8.8125
21
2.8125
0
LINE
8
Hilbert
10
8.8125
20
2.8125
11
8.8125
21
2.4375
0
LINE
8
Hilbert
10
8.8125
20
2.4375
11
8.8125
21
2.0625
0
LINE
8
Hilbert
10
8.8125
20
2.0625
11
8.4375
21
2.0625
0
LINE
8
Hilbert
10
8.4375
20
2.0625
11
8.4375
21
1.6875
0
LINE
8
Hilbert
10
8.4375
20
1.6875
11
8.8125
21
1.6875
0
LINE
8
Hilbert
10
8.8125
20
1.6875
11
8.8125
21
1.3125
0
LINE
8
Hilbert
10
8.8125
20
1.3125
11
8.8125
21
0.9375
0
LINE
8
Hilbert
10
8.8125
20
0.9375
11
8.4375
21
0.9375
0
LINE
8
Hilbert
10
8.4375
20
0.9375
11
8.4375
21
1.3125
0
LINE
8
Hilbert
10
8.4375
20
1.3125
11
8.0625
21
1.3125
0
LINE
8
Hilbert
10
8.0625
20
1.3125
11
7.6875
21
1.3125
0
LINE
8
Hilbert
10
7.6875
20
1.3125
11
7.6875
21
0.9375
0
LINE
8
Hilbert
10
7.6875
20
0.9375
11
8.0625
21
0.9375
0
LINE
8
Hilbert
10
8.0625
20
0.9375
11
8.0625
21
0.5625
0
LINE
8
Hilbert
10
8.0625
20
0.5625
11
7.6875
21
0.5625
0
LINE
8
Hilbert
10
7.6875
20
0.5625
11
7.6875
21
0.1875
0
LINE
8
Hilbert
10
7.6875
20
0.1875
11
8.0625
21
0.1875
0
LINE
8
Hilbert
10
8.0625
20
0.1875
11
8.4375
21
0.1875
0
LINE
8
Hilbert
10
8.4375
20
0.1875
11
8.4375
21
0.5625
0
LINE
8
Hilbert
10
8.4375
20
0.5625
11
8.8125
21
0.5625
0
LINE
8
Hilbert
10
8.8125
20
0.5625
11
8.8125
21
0.1875
0
LINE
8
Hilbert
10
8.8125
20
0.1875
11
9.1875
21
0.1875
0
LINE
8
Hilbert
10
9.1875
20
0.1875
11
9.5625
21
0.1875
0
LINE
8
Hilbert
10
9.5625
20
0.1875
11
9.5625
21
0.5625
0
LINE
8
Hilbert
10
9.5625
20
0.5625
11
9.1875
21
0.5625
0
LINE
8
Hilbert
10
9.1875
20
0.5625
11
9.1875
21
0.9375
0
LINE
8
Hilbert
10
9.1875
20
0.9375
11
9.1875
21
1.3125
0
LINE
8
Hilbert
10
9.1875
20
1.3125
11
9.5625
21
1.3125
0
LINE
8
Hilbert
10
9.5625
20
1.3125
11
9.5625
21
0.9375
0
LINE
8
Hilbert
10
9.5625
20
0.9375
11
9.9375
21
0.9375
0
LINE
8
Hilbert
10
9.9375
20
0.9375
11
9.9375
21
1.3125
0
LINE
8
Hilbert
10
9.9375
20
1.3125
11
10.3125
21
1.3125
0
LINE
8
Hilbert
10
10.3125
20
1.3125
11
10.3125
21
0.9375
0
LINE
8
Hilbert
10
10.3125
20
0.9375
11
10.3125
21
0.5625
0
LINE
8
Hilbert
10
10.3125
20
0.5625
11
9.9375
21
0.5625
0
LINE
8
Hilbert
10
9.9375
20
0.5625
11
9.9375
21
0.1875
0
LINE
8
Hilbert
10
9.9375
20
0.1875
11
10.3125
21
0.1875
0
LINE
8
Hilbert
10
10.3125
20
0.1875
11
10.6875
21
0.1875
0
LINE
8
Hilbert
10
10.6875
20
0.1875
11
10.6875
21
0.5625
0
LINE
8
Hilbert
10
10.6875
20
0.5625
11
11.0625
21
0.5625
0
LINE
8
Hilbert
10
11.0625
20
0.5625
11
11.0625
21
0.1875
0
LINE
8
Hilbert
10
11.0625
20
0.1875
11
11.4375
21
0.1875
0
LINE
8
Hilbert
10
11.4375
20
0.1875
11
11.8125
21
0.1875
0
LINE
8
Hilbert
10
11.8125
20
0.1875
11
11.8125
21
0.5625
0
LINE
8
Hilbert
10
11.8125
20
0.5625
11
11.4375
21
0.5625
0
LINE
8
Hilbert
10
11.4375
20
0.5625
11
11.4375
21
0.9375
0
LINE
8
Hilbert
10
11.4375
20
0.9375
11
11.8125
21
0.9375
0
LINE
8
Hilbert
10
11.8125
20
0.9375
11
11.8125
21
1.3125
0
LINE
8
Hilbert
10
11.8125
20
1.3125
11
11.4375
21
1.3125
0
LINE
8
Hilbert
10
11.4375
20
1.3125
11
11.0625
21
1.3125
0
LINE
8
Hilbert
10
11.0625
20
1.3125
11
11.0625
21
0.9375
0
LINE
8
Hilbert
10
11.0625
20
0.9375
11
10.6875
21
0.9375
0
LINE
8
Hilbert
10
10.6875
20
0.9375
11
10.6875
21
1.3125
0
LINE
8
Hilbert
10
10.6875
20
1.3125
11
10.6875
21
1.6875
0
LINE
8
Hilbert
10
10.6875
20
1.6875
11
10.6875
21
2.0625
0
LINE
8
Hilbert
10
10.6875
20
2.0625
11
11.0625
21
2.0625
0
LINE
8
Hilbert
10
11.0625
20
2.0625
11
11.0625
21
1.6875
0
LINE
8
Hilbert
10
11.0625
20
1.6875
11
11.4375
21
1.6875
0
LINE
8
Hilbert
10
11.4375
20
1.6875
11
11.8125
21
1.6875
0
LINE
8
Hilbert
10
11.8125
20
1.6875
11
11.8125
21
2.0625
0
LINE
8
Hilbert
10
11.8125
20
2.0625
11
11.4375
21
2.0625
0
LINE
8
Hilbert
10
11.4375
20
2.0625
11
11.4375
21
2.4375
0
LINE
8
Hilbert
10
11.4375
20
2.4375
11
11.8125
21
2.4375
0
LINE
8
Hilbert
10
11.8125
20
2.4375
11
11.8125
21
2.8125
0
LINE
8
Hilbert
10
11.8125
20
2.8125
11
11.4375
21
2.8125
0
LINE
8
Hilbert
10
11.4375
20
2.8125
11
11.0625
21
2.8125
0
LINE
8
Hilbert
10
11.0625
20
2.8125
11
11.0625
21
2.4375
0
LINE
8
Hilbert
10
11.0625
20
2.4375
11
10.6875
21
2.4375
0
LINE
8
Hilbert
10
10.6875
20
2.4375
11
10.6875
21
2.8125
0
LINE
8
Hilbert
10
10.6875
20
2.8125
11
10.3125
21
2.8125
0
LINE
8
Hilbert
10
10.3125
20
2.8125
11
9.9375
21
2.8125
0
LINE
8
Hilbert
10
9.9375
20
2.8125
11
9.9375
21
2.4375
0
LINE
8
Hilbert
10
9.9375
20
2.4375
11
10.3125
21
2.4375
0
LINE
8
Hilbert
10
10.3125
20
2.4375
11
10.3125
21
2.0625
0
LINE
8
Hilbert
10
10.3125
20
2.0625
11
10.3125
21
1.6875
0
LINE
8
Hilbert
10
10.3125
20
1.6875
11
9.9375
21
1.6875
0
LINE
8
Hilbert
10
9.9375
20
1.6875
11
9.9375
21
2.0625
0
LINE
8
Hilbert
10
9.9375
20
2.0625
11
9.5625
21
2.0625
0
LINE
8
Hilbert
10
9.5625
20
2.0625
11
9.5625
21
1.6875
0
LINE
8
Hilbert
10
9.5625
20
1.6875
11
9.1875
21
1.6875
0
LINE
8
Hilbert
10
9.1875
20
1.6875
11
9.1875
21
2.0625
0
LINE
8
Hilbert
10
9.1875
20
2.0625
11
9.1875
21
2.4375
0
LINE
8
Hilbert
10
9.1875
20
2.4375
11
9.5625
21
2.4375
0
LINE
8
Hilbert
10
9.5625
20
2.4375
11
9.5625
21
2.8125
0
LINE
8
Hilbert
10
9.5625
20
2.8125
11
9.1875
21
2.8125
0
LINE
8
Hilbert
10
9.1875
20
2.8125
11
9.1875
21
3.1875
0
LINE
8
Hilbert
10
9.1875
20
3.1875
11
9.5625
21
3.1875
0
LINE
8
Hilbert
10
9.5625
20
3.1875
11
9.5625
21
3.5625
0
LINE
8
Hilbert
10
9.5625
20
3.5625
11
9.1875
21
3.5625
0
LINE
8
Hilbert
10
9.1875
20
3.5625
11
9.1875
21
3.9375
0
LINE
8
Hilbert
10
9.1875
20
3.9375
11
9.1875
21
4.3125
0
LINE
8
Hilbert
10
9.1875
20
4.3125
11
9.5625
21
4.3125
0
LINE
8
Hilbert
10
9.5625
20
4.3125
11
9.5625
21
3.9375
0
LINE
8
Hilbert
10
9.5625
20
3.9375
11
9.9375
21
3.9375
0
LINE
8
Hilbert
10
9.9375
20
3.9375
11
9.9375
21
4.3125
0
LINE
8
Hilbert
10
9.9375
20
4.3125
11
10.3125
21
4.3125
0
LINE
8
Hilbert
10
10.3125
20
4.3125
11
10.3125
21
3.9375
0
LINE
8
Hilbert
10
10.3125
20
3.9375
11
10.3125
21
3.5625
0
LINE
8
Hilbert
10
10.3125
20
3.5625
11
9.9375
21
3.5625
0
LINE
8
Hilbert
10
9.9375
20
3.5625
11
9.9375
21
3.1875
0
LINE
8
Hilbert
10
9.9375
20
3.1875
11
10.3125
21
3.1875
0
LINE
8
Hilbert
10
10.3125
20
3.1875
11
10.6875
21
3.1875
0
LINE
8
Hilbert
10
10.6875
20
3.1875
11
10.6875
21
3.5625
0
LINE
8
Hilbert
10
10.6875
20
3.5625
11
11.0625
21
3.5625
0
LINE
8
Hilbert
10
11.0625
20
3.5625
11
11.0625
21
3.1875
0
LINE
8
Hilbert
10
11.0625
20
3.1875
11
11.4375
21
3.1875
0
LINE
8
Hilbert
10
11.4375
20
3.1875
11
11.8125
21
3.1875
0
LINE
8
Hilbert
10
11.8125
20
3.1875
11
11.8125
21
3.5625
0
LINE
8
Hilbert
10
11.8125
20
3.5625
11
11.4375
21
3.5625
0
LINE
8
Hilbert
10
11.4375
20
3.5625
11
11.4375
21
3.9375
0
LINE
8
Hilbert
10
11.4375
20
3.9375
11
11.8125
21
3.9375
0
LINE
8
Hilbert
10
11.8125
20
3.9375
11
11.8125
21
4.3125
0
LINE
8
Hilbert
10
11.8125
20
4.3125
11
11.4375
21
4.3125
0
LINE
8
Hilbert
10
11.4375
20
4.3125
11
11.0625
21
4.3125
0
LINE
8
Hilbert
10
11.0625
20
4.3125
11
11.0625
21
3.9375
0
LINE
8
Hilbert
10
11.0625
20
3.9375
11
10.6875
21
3.9375
0
LINE
8
Hilbert
10
10.6875
20
3.9375
11
10.6875
21
4.3125
0
LINE
8
Hilbert
10
10.6875
20
4.3125
11
10.6875
21
4.6875
0
LINE
8
Hilbert
10
10.6875
20
4.6875
11
10.6875
21
5.0625
0
LINE
8
Hilbert
10
10.6875
20
5.0625
11
11.0625
21
5.0625
0
LINE
8
Hilbert
10
11.0625
20
5.0625
11
11.0625
21
4.6875
0
LINE
8
Hilbert
10
11.0625
20
4.6875
11
11.4375
21
4.6875
0
LINE
8
Hilbert
10
11.4375
20
4.6875
11
11.8125
21
4.6875
0
LINE
8
Hilbert
10
11.8125
20
4.6875
11
11.8125
21
5.0625
0
LINE
8
Hilbert
10
11.8125
20
5.0625
11
11.4375
21
5.0625
0
LINE
8
Hilbert
10
11.4375
20
5.0625
11
11.4375
21
5.4375
0
LINE
8
Hilbert
10
11.4375
20
5.4375
11
11.8125
21
5.4375
0
LINE
8
Hilbert
10
11.8125
20
5.4375
11
11.8125
21
5.8125
0
LINE
8
Hilbert
10
11.8125
20
5.8125
11
11.4375
21
5.8125
0
LINE
8
Hilbert
10
11.4375
20
5.8125
11
11.0625
21
5.8125
0
LINE
8
Hilbert
10
11.0625
20
5.8125
11
11.0625
21
5.4375
0
LINE
8
Hilbert
10
11.0625
20
5.4375
11
10.6875
21
5.4375
0
LINE
8
Hilbert
10
10.6875
20
5.4375
11
10.6875
21
5.8125
0
LINE
8
Hilbert
10
10.6875
20
5.8125
11
10.3125
21
5.8125
0
LINE
8
Hilbert
10
10.3125
20
5.8125
11
9.9375
21
5.8125
0
LINE
8
Hilbert
10
9.9375
20
5.8125
11
9.9375
21
5.4375
0
LINE
8
Hilbert
10
9.9375
20
5.4375
11
10.3125
21
5.4375
0
LINE
8
Hilbert
10
10.3125
20
5.4375
11
10.3125
21
5.0625
0
LINE
8
Hilbert
10
10.3125
20
5.0625
11
10.3125
21
4.6875
0
LINE
8
Hilbert
10
10.3125
20
4.6875
11
9.9375
21
4.6875
0
LINE
8
Hilbert
10
9.9375
20
4.6875
11
9.9375
21
5.0625
0
LINE
8
Hilbert
10
9.9375
20
5.0625
11
9.5625
21
5.0625
0
LINE
8
Hilbert
10
9.5625
20
5.0625
11
9.5625
21
4.6875
0
LINE
8
Hilbert
10
9.5625
20
4.6875
11
9.1875
21
4.6875
0
LINE
8
Hilbert
10
9.1875
20
4.6875
11
9.1875
21
5.0625
0
LINE
8
Hilbert
10
9.1875
20
5.0625
11
9.1875
21
5.4375
0
LINE
8
Hilbert
10
9.1875
20
5.4375
11
9.5625
21
5.4375
0
LINE
8
Hilbert
10
9.5625
20
5.4375
11
9.5625
21
5.8125
0
LINE
8
Hilbert
10
9.5625
20
5.8125
11
9.1875
21
5.8125
0
LINE
8
Hilbert
10
9.1875
20
5.8125
11
8.8125
21
5.8125
0
LINE
8
Hilbert
10
8.8125
20
5.8125
11
8.8125
21
5.4375
0
LINE
8
Hilbert
10
8.8125
20
5.4375
11
8.4375
21
5.4375
0
LINE
8
Hilbert
10
8.4375
20
5.4375
11
8.4375
21
5.8125
0
LINE
8
Hilbert
10
8.4375
20
5.8125
11
8.0625
21
5.8125
0
LINE
8
Hilbert
10
8.0625
20
5.8125
11
7.6875
21
5.8125
0
LINE
8
Hilbert
10
7.6875
20
5.8125
11
7.6875
21
5.4375
0
LINE
8
Hilbert
10
7.6875
20
5.4375
11
8.0625
21
5.4375
0
LINE
8
Hilbert
10
8.0625
20
5.4375
11
8.0625
21
5.0625
0
LINE
8
Hilbert
10
8.0625
20
5.0625
11
7.6875
21
5.0625
0
LINE
8
Hilbert
10
7.6875
20
5.0625
11
7.6875
21
4.6875
0
LINE
8
Hilbert
10
7.6875
20
4.6875
11
8.0625
21
4.6875
0
LINE
8
Hilbert
10
8.0625
20
4.6875
11
8.4375
21
4.6875
0
LINE
8
Hilbert
10
8.4375
20
4.6875
11
8.4375
21
5.0625
0
LINE
8
Hilbert
10
8.4375
20
5.0625
11
8.8125
21
5.0625
0
LINE
8
Hilbert
10
8.8125
20
5.0625
11
8.8125
21
4.6875
0
LINE
8
Hilbert
10
8.8125
20
4.6875
11
8.8125
21
4.3125
0
LINE
8
Hilbert
10
8.8125
20
4.3125
11
8.4375
21
4.3125
0
LINE
8
Hilbert
10
8.4375
20
4.3125
11
8.4375
21
3.9375
0
LINE
8
Hilbert
10
8.4375
20
3.9375
11
8.8125
21
3.9375
0
LINE
8
Hilbert
10
8.8125
20
3.9375
11
8.8125
21
3.5625
0
LINE
8
Hilbert
10
8.8125
20
3.5625
11
8.8125
21
3.1875
0
LINE
8
Hilbert
10
8.8125
20
3.1875
11
8.4375
21
3.1875
0
LINE
8
Hilbert
10
8.4375
20
3.1875
11
8.4375
21
3.5625
0
LINE
8
Hilbert
10
8.4375
20
3.5625
11
8.0625
21
3.5625
0
LINE
8
Hilbert
10
8.0625
20
3.5625
11
8.0625
21
3.1875
0
LINE
8
Hilbert
10
8.0625
20
3.1875
11
7.6875
21
3.1875
0
LINE
8
Hilbert
10
7.6875
20
3.1875
11
7.6875
21
3.5625
0
LINE
8
Hilbert
10
7.6875
20
3.5625
11
7.6875
21
3.9375
0
LINE
8
Hilbert
10
7.6875
20
3.9375
11
8.0625
21
3.9375
0
LINE
8
Hilbert
10
8.0625
20
3.9375
11
8.0625
21
4.3125
0
LINE
8
Hilbert
10
8.0625
20
4.3125
11
7.6875
21
4.3125
0
LINE
8
Hilbert
10
7.6875
20
4.3125
11
7.3125
21
4.3125
0
LINE
8
Hilbert
10
7.3125
20
4.3125
11
6.9375
21
4.3125
0
LINE
8
Hilbert
10
6.9375
20
4.3125
11
6.9375
21
3.9375
0
LINE
8
Hilbert
10
6.9375
20
3.9375
11
7.3125
21
3.9375
0
LINE
8
Hilbert
10
7.3125
20
3.9375
11
7.3125
21
3.5625
0
LINE
8
Hilbert
10
7.3125
20
3.5625
11
7.3125
21
3.1875
0
LINE
8
Hilbert
10
7.3125
20
3.1875
11
6.9375
21
3.1875
0
LINE
8
Hilbert
10
6.9375
20
3.1875
11
6.9375
21
3.5625
0
LINE
8
Hilbert
10
6.9375
20
3.5625
11
6.5625
21
3.5625
0
LINE
8
Hilbert
10
6.5625
20
3.5625
11
6.5625
21
3.1875
0
LINE
8
Hilbert
10
6.5625
20
3.1875
11
6.1875
21
3.1875
0
LINE
8
Hilbert
10
6.1875
20
3.1875
11
6.1875
21
3.5625
0
LINE
8
Hilbert
10
6.1875
20
3.5625
11
6.1875
21
3.9375
0
LINE
8
Hilbert
10
6.1875
20
3.9375
11
6.5625
21
3.9375
0
LINE
8
Hilbert
10
6.5625
20
3.9375
11
6.5625
21
4.3125
0
LINE
8
Hilbert
10
6.5625
20
4.3125
11
6.1875
21
4.3125
0
LINE
8
Hilbert
10
6.1875
20
4.3125
11
6.1875
21
4.6875
0
LINE
8
Hilbert
10
6.1875
20
4.6875
11
6.1875
21
5.0625
0
LINE
8
Hilbert
10
6.1875
20
5.0625
11
6.5625
21
5.0625
0
LINE
8
Hilbert
10
6.5625
20
5.0625
11
6.5625
21
4.6875
0
LINE
8
Hilbert
10
6.5625
20
4.6875
11
6.9375
21
4.6875
0
LINE
8
Hilbert
10
6.9375
20
4.6875
11
7.3125
21
4.6875
0
LINE
8
Hilbert
10
7.3125
20
4.6875
11
7.3125
21
5.0625
0
LINE
8
Hilbert
10
7.3125
20
5.0625
11
6.9375
21
5.0625
0
LINE
8
Hilbert
10
6.9375
20
5.0625
11
6.9375
21
5.4375
0
LINE
8
Hilbert
10
6.9375
20
5.4375
11
7.3125
21
5.4375
0
LINE
8
Hilbert
10
7.3125
20
5.4375
11
7.3125
21
5.8125
0
LINE
8
Hilbert
10
7.3125
20
5.8125
11
6.9375
21
5.8125
0
LINE
8
Hilbert
10
6.9375
20
5.8125
11
6.5625
21
5.8125
0
LINE
8
Hilbert
10
6.5625
20
5.8125
11
6.5625
21
5.4375
0
LINE
8
Hilbert
10
6.5625
20
5.4375
11
6.1875
21
5.4375
0
LINE
8
Hilbert
10
6.1875
20
5.4375
11
6.1875
21
5.8125
0
LINE
8
Hilbert
10
6.1875
20
5.8125
11
6.1875
21
6.1875
0
LINE
8
Hilbert
10
6.1875
20
6.1875
11
6.1875
21
6.5625
0
LINE
8
Hilbert
10
6.1875
20
6.5625
11
6.5625
21
6.5625
0
LINE
8
Hilbert
10
6.5625
20
6.5625
11
6.5625
21
6.1875
0
LINE
8
Hilbert
10
6.5625
20
6.1875
11
6.9375
21
6.1875
0
LINE
8
Hilbert
10
6.9375
20
6.1875
11
7.3125
21
6.1875
0
LINE
8
Hilbert
10
7.3125
20
6.1875
11
7.3125
21
6.5625
0
LINE
8
Hilbert
10
7.3125
20
6.5625
11
6.9375
21
6.5625
0
LINE
8
Hilbert
10
6.9375
20
6.5625
11
6.9375
21
6.9375
0
LINE
8
Hilbert
10
6.9375
20
6.9375
11
7.3125
21
6.9375
0
LINE
8
Hilbert
10
7.3125
20
6.9375
11
7.3125
21
7.3125
0
LINE
8
Hilbert
10
7.3125
20
7.3125
11
6.9375
21
7.3125
0
LINE
8
Hilbert
10
6.9375
20
7.3125
11
6.5625
21
7.3125
0
LINE
8
Hilbert
10
6.5625
20
7.3125
11
6.5625
21
6.9375
0
LINE
8
Hilbert
10
6.5625
20
6.9375
11
6.1875
21
6.9375
0
LINE
8
Hilbert
10
6.1875
20
6.9375
11
6.1875
21
7.3125
0
LINE
8
Hilbert
10
6.1875
20
7.3125
11
6.1875
21
7.6875
0
LINE
8
Hilbert
10
6.1875
20
7.6875
11
6.5625
21
7.6875
0
LINE
8
Hilbert
10
6.5625
20
7.6875
11
6.5625
21
8.0625
0
LINE
8
Hilbert
10
6.5625
20
8.0625
11
6.1875
21
8.0625
0
LINE
8
Hilbert
10
6.1875
20
8.0625
11
6.1875
21
8.4375
0
LINE
8
Hilbert
10
6.1875
20
8.4375
11
6.1875
21
8.8125
0
LINE
8
Hilbert
10
6.1875
20
8.8125
11
6.5625
21
8.8125
0
LINE
8
Hilbert
10
6.5625
20
8.8125
11
6.5625
21
8.4375
0
LINE
8
Hilbert
10
6.5625
20
8.4375
11
6.9375
21
8.4375
0
LINE
8
Hilbert
10
6.9375
20
8.4375
11
6.9375
21
8.8125
0
LINE
8
Hilbert
10
6.9375
20
8.8125
11
7.3125
21
8.8125
0
LINE
8
Hilbert
10
7.3125
20
8.8125
11
7.3125
21
8.4375
0
LINE
8
Hilbert
10
7.3125
20
8.4375
11
7.3125
21
8.0625
0
LINE
8
Hilbert
10
7.3125
20
8.0625
11
6.9375
21
8.0625
0
LINE
8
Hilbert
10
6.9375
20
8.0625
11
6.9375
21
7.6875
0
LINE
8
Hilbert
10
6.9375
20
7.6875
11
7.3125
21
7.6875
0
LINE
8
Hilbert
10
7.3125
20
7.6875
11
7.6875
21
7.6875
0
LINE
8
Hilbert
10
7.6875
20
7.6875
11
8.0625
21
7.6875
0
LINE
8
Hilbert
10
8.0625
20
7.6875
11
8.0625
21
8.0625
0
LINE
8
Hilbert
10
8.0625
20
8.0625
11
7.6875
21
8.0625
0
LINE
8
Hilbert
10
7.6875
20
8.0625
11
7.6875
21
8.4375
0
LINE
8
Hilbert
10
7.6875
20
8.4375
11
7.6875
21
8.8125
0
LINE
8
Hilbert
10
7.6875
20
8.8125
11
8.0625
21
8.8125
0
LINE
8
Hilbert
10
8.0625
20
8.8125
11
8.0625
21
8.4375
0
LINE
8
Hilbert
10
8.0625
20
8.4375
11
8.4375
21
8.4375
0
LINE
8
Hilbert
10
8.4375
20
8.4375
11
8.4375
21
8.8125
0
LINE
8
Hilbert
10
8.4375
20
8.8125
11
8.8125
21
8.8125
0
LINE
8
Hilbert
10
8.8125
20
8.8125
11
8.8125
21
8.4375
0
LINE
8
Hilbert
10
8.8125
20
8.4375
11
8.8125
21
8.0625
0
LINE
8
Hilbert
10
8.8125
20
8.0625
11
8.4375
21
8.0625
0
LINE
8
Hilbert
10
8.4375
20
8.0625
11
8.4375
21
7.6875
0
LINE
8
Hilbert
10
8.4375
20
7.6875
11
8.8125
21
7.6875
0
LINE
8
Hilbert
10
8.8125
20
7.6875
11
8.8125
21
7.3125
0
LINE
8
Hilbert
10
8.8125
20
7.3125
11
8.8125
21
6.9375
0
LINE
8
Hilbert
10
8.8125
20
6.9375
11
8.4375
21
6.9375
0
LINE
8
Hilbert
10
8.4375
20
6.9375
11
8.4375
21
7.3125
0
LINE
8
Hilbert
10
8.4375
20
7.3125
11
8.0625
21
7.3125
0
LINE
8
Hilbert
10
8.0625
20
7.3125
11
7.6875
21
7.3125
0
LINE
8
Hilbert
10
7.6875
20
7.3125
11
7.6875
21
6.9375
0
LINE
8
Hilbert
10
7.6875
20
6.9375
11
8.0625
21
6.9375
0
LINE
8
Hilbert
10
8.0625
20
6.9375
11
8.0625
21
6.5625
0
LINE
8
Hilbert
10
8.0625
20
6.5625
11
7.6875
21
6.5625
0
LINE
8
Hilbert
10
7.6875
20
6.5625
11
7.6875
21
6.1875
0
LINE
8
Hilbert
10
7.6875
20
6.1875
11
8.0625
21
6.1875
0
LINE
8
Hilbert
10
8.0625
20
6.1875
11
8.4375
21
6.1875
0
LINE
8
Hilbert
10
8.4375
20
6.1875
11
8.4375
21
6.5625
0
LINE
8
Hilbert
10
8.4375
20
6.5625
11
8.8125
21
6.5625
0
LINE
8
Hilbert
10
8.8125
20
6.5625
11
8.8125
21
6.1875
0
LINE
8
Hilbert
10
8.8125
20
6.1875
11
9.1875
21
6.1875
0
LINE
8
Hilbert
10
9.1875
20
6.1875
11
9.5625
21
6.1875
0
LINE
8
Hilbert
10
9.5625
20
6.1875
11
9.5625
21
6.5625
0
LINE
8
Hilbert
10
9.5625
20
6.5625
11
9.1875
21
6.5625
0
LINE
8
Hilbert
10
9.1875
20
6.5625
11
9.1875
21
6.9375
0
LINE
8
Hilbert
10
9.1875
20
6.9375
11
9.1875
21
7.3125
0
LINE
8
Hilbert
10
9.1875
20
7.3125
11
9.5625
21
7.3125
0
LINE
8
Hilbert
10
9.5625
20
7.3125
11
9.5625
21
6.9375
0
LINE
8
Hilbert
10
9.5625
20
6.9375
11
9.9375
21
6.9375
0
LINE
8
Hilbert
10
9.9375
20
6.9375
11
9.9375
21
7.3125
0
LINE
8
Hilbert
10
9.9375
20
7.3125
11
10.3125
21
7.3125
0
LINE
8
Hilbert
10
10.3125
20
7.3125
11
10.3125
21
6.9375
0
LINE
8
Hilbert
10
10.3125
20
6.9375
11
10.3125
21
6.5625
0
LINE
8
Hilbert
10
10.3125
20
6.5625
11
9.9375
21
6.5625
0
LINE
8
Hilbert
10
9.9375
20
6.5625
11
9.9375
21
6.1875
0
LINE
8
Hilbert
10
9.9375
20
6.1875
11
10.3125
21
6.1875
0
LINE
8
Hilbert
10
10.3125
20
6.1875
11
10.6875
21
6.1875
0
LINE
8
Hilbert
10
10.6875
20
6.1875
11
10.6875
21
6.5625
0
LINE
8
Hilbert
10
10.6875
20
6.5625
11
11.0625
21
6.5625
0
LINE
8
Hilbert
10
11.0625
20
6.5625
11
11.0625
21
6.1875
0
LINE
8
Hilbert
10
11.0625
20
6.1875
11
11.4375
21
6.1875
0
LINE
8
Hilbert
10
11.4375
20
6.1875
11
11.8125
21
6.1875
0
LINE
8
Hilbert
10
11.8125
20
6.1875
11
11.8125
21
6.5625
0
LINE
8
Hilbert
10
11.8125
20
6.5625
11
11.4375
21
6.5625
0
LINE
8
Hilbert
10
11.4375
20
6.5625
11
11.4375
21
6.9375
0
LINE
8
Hilbert
10
11.4375
20
6.9375
11
11.8125
21
6.9375
0
LINE
8
Hilbert
10
11.8125
20
6.9375
11
11.8125
21
7.3125
0
LINE
8
Hilbert
10
11.8125
20
7.3125
11
11.4375
21
7.3125
0
LINE
8
Hilbert
10
11.4375
20
7.3125
11
11.0625
21
7.3125
0
LINE
8
Hilbert
10
11.0625
20
7.3125
11
11.0625
21
6.9375
0
LINE
8
Hilbert
10
11.0625
20
6.9375
11
10.6875
21
6.9375
0
LINE
8
Hilbert
10
10.6875
20
6.9375
11
10.6875
21
7.3125
0
LINE
8
Hilbert
10
10.6875
20
7.3125
11
10.6875
21
7.6875
0
LINE
8
Hilbert
10
10.6875
20
7.6875
11
10.6875
21
8.0625
0
LINE
8
Hilbert
10
10.6875
20
8.0625
11
11.0625
21
8.0625
0
LINE
8
Hilbert
10
11.0625
20
8.0625
11
11.0625
21
7.6875
0
LINE
8
Hilbert
10
11.0625
20
7.6875
11
11.4375
21
7.6875
0
LINE
8
Hilbert
10
11.4375
20
7.6875
11
11.8125
21
7.6875
0
LINE
8
Hilbert
10
11.8125
20
7.6875
11
11.8125
21
8.0625
0
LINE
8
Hilbert
10
11.8125
20
8.0625
11
11.4375
21
8.0625
0
LINE
8
Hilbert
10
11.4375
20
8.0625
11
11.4375
21
8.4375
0
LINE
8
Hilbert
10
11.4375
20
8.4375
11
11.8125
21
8.4375
0
LINE
8
Hilbert
10
11.8125
20
8.4375
11
11.8125
21
8.8125
0
LINE
8
Hilbert
10
11.8125
20
8.8125
11
11.4375
21
8.8125
0
LINE
8
Hilbert
10
11.4375
20
8.8125
11
11.0625
21
8.8125
0
LINE
8
Hilbert
10
11.0625
20
8.8125
11
11.0625
21
8.4375
0
LINE
8
Hilbert
10
11.0625
20
8.4375
11
10.6875
21
8.4375
0
LINE
8
Hilbert
10
10.6875
20
8.4375
11
10.6875
21
8.8125
0
LINE
8
Hilbert
10
10.6875
20
8.8125
11
10.3125
21
8.8125
0
LINE
8
Hilbert
10
10.3125
20
8.8125
11
9.9375
21
8.8125
0
LINE
8
Hilbert
10
9.9375
20
8.8125
11
9.9375
21
8.4375
0
LINE
8
Hilbert
10
9.9375
20
8.4375
11
10.3125
21
8.4375
0
LINE
8
Hilbert
10
10.3125
20
8.4375
11
10.3125
21
8.0625
0
LINE
8
Hilbert
10
10.3125
20
8.0625
11
10.3125
21
7.6875
0
LINE
8
Hilbert
10
10.3125
20
7.6875
11
9.9375
21
7.6875
0
LINE
8
Hilbert
10
9.9375
20
7.6875
11
9.9375
21
8.0625
0
LINE
8
Hilbert
10
9.9375
20
8.0625
11
9.5625
21
8.0625
0
LINE
8
Hilbert
10
9.5625
20
8.0625
11
9.5625
21
7.6875
0
LINE
8
Hilbert
10
9.5625
20
7.6875
11
9.1875
21
7.6875
0
LINE
8
Hilbert
10
9.1875
20
7.6875
11
9.1875
21
8.0625
0
LINE
8
Hilbert
10
9.1875
20
8.0625
11
9.1875
21
8.4375
0
LINE
8
Hilbert
10
9.1875
20
8.4375
11
9.5625
21
8.4375
0
LINE
8
Hilbert
10
9.5625
20
8.4375
11
9.5625
21
8.8125
0
LINE
8
Hilbert
10
9.5625
20
8.8125
11
9.1875
21
8.8125
0
LINE
8
Hilbert
10
9.1875
20
8.8125
11
9.1875
21
9.1875
0
LINE
8
Hilbert
10
9.1875
20
9.1875
11
9.5625
21
9.1875
0
LINE
8
Hilbert
10
9.5625
20
9.1875
11
9.5625
21
9.5625
0
LINE
8
Hilbert
10
9.5625
20
9.5625
11
9.1875
21
9.5625
0
LINE
8
Hilbert
10
9.1875
20
9.5625
11
9.1875
21
9.9375
0
LINE
8
Hilbert
10
9.1875
20
9.9375
11
9.1875
21
10.3125
0
LINE
8
Hilbert
10
9.1875
20
10.3125
11
9.5625
21
10.3125
0
LINE
8
Hilbert
10
9.5625
20
10.3125
11
9.5625
21
9.9375
0
LINE
8
Hilbert
10
9.5625
20
9.9375
11
9.9375
21
9.9375
0
LINE
8
Hilbert
10
9.9375
20
9.9375
11
9.9375
21
10.3125
0
LINE
8
Hilbert
10
9.9375
20
10.3125
11
10.3125
21
10.3125
0
LINE
8
Hilbert
10
10.3125
20
10.3125
11
10.3125
21
9.9375
0
LINE
8
Hilbert
10
10.3125
20
9.9375
11
10.3125
21
9.5625
0
LINE
8
Hilbert
10
10.3125
20
9.5625
11
9.9375
21
9.5625
0
LINE
8
Hilbert
10
9.9375
20
9.5625
11
9.9375
21
9.1875
0
LINE
8
Hilbert
10
9.9375
20
9.1875
11
10.3125
21
9.1875
0
LINE
8
Hilbert
10
10.3125
20
9.1875
11
10.6875
21
9.1875
0
LINE
8
Hilbert
10
10.6875
20
9.1875
11
10.6875
21
9.5625
0
LINE
8
Hilbert
10
10.6875
20
9.5625
11
11.0625
21
9.5625
0
LINE
8
Hilbert
10
11.0625
20
9.5625
11
11.0625
21
9.1875
0
LINE
8
Hilbert
10
11.0625
20
9.1875
11
11.4375
21
9.1875
0
LINE
8
Hilbert
10
11.4375
20
9.1875
11
11.8125
21
9.1875
0
LINE
8
Hilbert
10
11.8125
20
9.1875
11
11.8125
21
9.5625
0
LINE
8
Hilbert
10
11.8125
20
9.5625
11
11.4375
21
9.5625
0
LINE
8
Hilbert
10
11.4375
20
9.5625
11
11.4375
21
9.9375
0
LINE
8
Hilbert
10
11.4375
20
9.9375
11
11.8125
21
9.9375
0
LINE
8
Hilbert
10
11.8125
20
9.9375
11
11.8125
21
10.3125
0
LINE
8
Hilbert
10
11.8125
20
10.3125
11
11.4375
21
10.3125
0
LINE
8
Hilbert
10
11.4375
20
10.3125
11
11.0625
21
10.3125
0
LINE
8
Hilbert
10
11.0625
20
10.3125
11
11.0625
21
9.9375
0
LINE
8
Hilbert
10
11.0625
20
9.9375
11
10.6875
21
9.9375
0
LINE
8
Hilbert
10
10.6875
20
9.9375
11
10.6875
21
10.3125
0
LINE
8
Hilbert
10
10.6875
20
10.3125
11
10.6875
21
10.6875
0
LINE
8
Hilbert
10
10.6875
20
10.6875
11
10.6875
21
11.0625
0
LINE
8
Hilbert
10
10.6875
20
11.0625
11
11.0625
21
11.0625
0
LINE
8
Hilbert
10
11.0625
20
11.0625
11
11.0625
21
10.6875
0
LINE
8
Hilbert
10
11.0625
20
10.6875
11
11.4375
21
10.6875
0
LINE
8
Hilbert
10
11.4375
20
10.6875
11
11.8125
21
10.6875
0
LINE
8
Hilbert
10
11.8125
20
10.6875
11
11.8125
21
11.0625
0
LINE
8
Hilbert
10
11.8125
20
11.0625
11
11.4375
21
11.0625
0
LINE
8
Hilbert
10
11.4375
20
11.0625
11
11.4375
21
11.4375
0
LINE
8
Hilbert
10
11.4375
20
11.4375
11
11.8125
21
11.4375
0
LINE
8
Hilbert
10
11.8125
20
11.4375
11
11.8125
21
11.8125
0
LINE
8
Hilbert
10
11.8125
20
11.8125
11
11.4375
21
11.8125
0
LINE
8
Hilbert
10
11.4375
20
11.8125
11
11.0625
21
11.8125
0
LINE
8
Hilbert
10
11.0625
20
11.8125
11
11.0625
21
11.4375
0
LINE
8
Hilbert
10
11.0625
20
11.4375
11
10.6875
21
11.4375
0
LINE
8
Hilbert
10
10.6875
20
11.4375
11
10.6875
21
11.8125
0
LINE
8
Hilbert
10
10.6875
20
11.8125
11
10.3125
21
11.8125
0
LINE
8
Hilbert
10
10.3125
20
11.8125
11
9.9375
21
11.8125
0
LINE
8
Hilbert
10
9.9375
20
11.8125
11
9.9375
21
11.4375
0
LINE
8
Hilbert
10
9.9375
20
11.4375
11
10.3125
21
11.4375
0
LINE
8
Hilbert
10
10.3125
20
11.4375
11
10.3125
21
11.0625
0
LINE
8
Hilbert
10
10.3125
20
11.0625
11
10.3125
21
10.6875
0
LINE
8
Hilbert
10
10.3125
20
10.6875
11
9.9375
21
10.6875
0
LINE
8
Hilbert
10
9.9375
20
10.6875
11
9.9375
21
11.0625
0
LINE
8
Hilbert
10
9.9375
20
11.0625
11
9.5625
21
11.0625
0
LINE
8
Hilbert
10
9.5625
20
11.0625
11
9.5625
21
10.6875
0
LINE
8
Hilbert
10
9.5625
20
10.6875
11
9.1875
21
10.6875
0
LINE
8
Hilbert
10
9.1875
20
10.6875
11
9.1875
21
11.0625
0
LINE
8
Hilbert
10
9.1875
20
11.0625
11
9.1875
21
11.4375
0
LINE
8
Hilbert
10
9.1875
20
11.4375
11
9.5625
21
11.4375
0
LINE
8
Hilbert
10
9.5625
20
11.4375
11
9.5625
21
11.8125
0
LINE
8
Hilbert
10
9.5625
20
11.8125
11
9.1875
21
11.8125
0
LINE
8
Hilbert
10
9.1875
20
11.8125
11
8.8125
21
11.8125
0
LINE
8
Hilbert
10
8.8125
20
11.8125
11
8.8125
21
11.4375
0
LINE
8
Hilbert
10
8.8125
20
11.4375
11
8.4375
21
11.4375
0
LINE
8
Hilbert
10
8.4375
20
11.4375
11
8.4375
21
11.8125
0
LINE
8
Hilbert
10
8.4375
20
11.8125
11
8.0625
21
11.8125
0
LINE
8
Hilbert
10
8.0625
20
11.8125
11
7.6875
21
11.8125
0
LINE
8
Hilbert
10
7.6875
20
11.8125
11
7.6875
21
11.4375
0
LINE
8
Hilbert
10
7.6875
20
11.4375
11
8.0625
21
11.4375
0
LINE
8
Hilbert
10
8.0625
20
11.4375
11
8.0625
21
11.0625
0
LINE
8
Hilbert
10
8.0625
20
11.0625
11
7.6875
21
11.0625
0
LINE
8
Hilbert
10
7.6875
20
11.0625
11
7.6875
21
10.6875
0
LINE
8
Hilbert
10
7.6875
20
10.6875
11
8.0625
21
10.6875
0
LINE
8
Hilbert
10
8.0625
20
10.6875
11
8.4375
21
10.6875
0
LINE
8
Hilbert
10
8.4375
20
10.6875
11
8.4375
21
11.0625
0
LINE
8
Hilbert
10
8.4375
20
11.0625
11
8.8125
21
11.0625
0
LINE
8
Hilbert
10
8.8125
20
11.0625
11
8.8125
21
10.6875
0
LINE
8
Hilbert
10
8.8125
20
10.6875
11
8.8125
21
10.3125
0
LINE
8
Hilbert
10
8.8125
20
10.3125
11
8.4375
21
10.3125
0
LINE
8
Hilbert
10
8.4375
20
10.3125
11
8.4375
21
9.9375
0
LINE
8
Hilbert
10
8.4375
20
9.9375
11
8.8125
21
9.9375
0
LINE
8
Hilbert
10
8.8125
20
9.9375
11
8.8125
21
9.5625
0
LINE
8
Hilbert
10
8.8125
20
9.5625
11
8.8125
21
9.1875
0
LINE
8
Hilbert
10
8.8125
20
9.1875
11
8.4375
21
9.1875
0
LINE
8
Hilbert
10
8.4375
20
9.1875
11
8.4375
21
9.5625
0
LINE
8
Hilbert
10
8.4375
20
9.5625
11
8.0625
21
9.5625
0
LINE
8
Hilbert
10
8.0625
20
9.5625
11
8.0625
21
9.1875
0
LINE
8
Hilbert
10
8.0625
20
9.1875
11
7.6875
21
9.1875
0
LINE
8
Hilbert
10
7.6875
20
9.1875
11
7.6875
21
9.5625
0
LINE
8
Hilbert
10
7.6875
20
9.5625
11
7.6875
21
9.9375
0
LINE
8
Hilbert
10
7.6875
20
9.9375
11
8.0625
21
9.9375
0
LINE
8
Hilbert
10
8.0625
20
9.9375
11
8.0625
21
10.3125
0
LINE
8
Hilbert
10
8.0625
20
10.3125
11
7.6875
21
10.3125
0
LINE
8
Hilbert
10
7.6875
20
10.3125
11
7.3125
21
10.3125
0
LINE
8
Hilbert
10
7.3125
20
10.3125
11
6.9375
21
10.3125
0
LINE
8
Hilbert
10
6.9375
20
10.3125
11
6.9375
21
9.9375
0
LINE
8
Hilbert
10
6.9375
20
9.9375
11
7.3125
21
9.9375
0
LINE
8
Hilbert
10
7.3125
20
9.9375
11
7.3125
21
9.5625
0
LINE
8
Hilbert
10
7.3125
20
9.5625
11
7.3125
21
9.1875
0
LINE
8
Hilbert
10
7.3125
20
9.1875
11
6.9375
21
9.1875
0
LINE
8
Hilbert
10
6.9375
20
9.1875
11
6.9375
21
9.5625
0
LINE
8
Hilbert
10
6.9375
20
9.5625
11
6.5625
21
9.5625
0
LINE
8
Hilbert
10
6.5625
20
9.5625
11
6.5625
21
9.1875
0
LINE
8
Hilbert
10
6.5625
20
9.1875
11
6.1875
21
9.1875
0
LINE
8
Hilbert
10
6.1875
20
9.1875
11
6.1875
21
9.5625
0
LINE
8
Hilbert
10
6.1875
20
9.5625
11
6.1875
21
9.9375
0
LINE
8
Hilbert
10
6.1875
20
9.9375
11
6.5625
21
9.9375
0
LINE
8
Hilbert
10
6.5625
20
9.9375
11
6.5625
21
10.3125
0
LINE
8
Hilbert
10
6.5625
20
10.3125
11
6.1875
21
10.3125
0
LINE
8
Hilbert
10
6.1875
20
10.3125
11
6.1875
21
10.6875
0
LINE
8
Hilbert
10
6.1875
20
10.6875
11
6.1875
21
11.0625
0
LINE
8
Hilbert
10
6.1875
20
11.0625
11
6.5625
21
11.0625
0
LINE
8
Hilbert
10
6.5625
20
11.0625
11
6.5625
21
10.6875
0
LINE
8
Hilbert
10
6.5625
20
10.6875
11
6.9375
21
10.6875
0
LINE
8
Hilbert
10
6.9375
20
10.6875
11
7.3125
21
10.6875
0
LINE
8
Hilbert
10
7.3125
20
10.6875
11
7.3125
21
11.0625
0
LINE
8
Hilbert
10
7.3125
20
11.0625
11
6.9375
21
11.0625
0
LINE
8
Hilbert
10
6.9375
20
11.0625
11
6.9375
21
11.4375
0
LINE
8
Hilbert
10
6.9375
20
11.4375
11
7.3125
21
11.4375
0
LINE
8
Hilbert
10
7.3125
20
11.4375
11
7.3125
21
11.8125
0
LINE
8
Hilbert
10
7.3125
20
11.8125
11
6.9375
21
11.8125
0
LINE
8
Hilbert
10
6.9375
20
11.8125
11
6.5625
21
11.8125
0
LINE
8
Hilbert
10
6.5625
20
11.8125
11
6.5625
21
11.4375
0
LINE
8
Hilbert
10
6.5625
20
11.4375
11
6.1875
21
11.4375
0
LINE
8
Hilbert
10
6.1875
20
11.4375
11
6.1875
21
11.8125
0
LINE
8
Hilbert
10
6.1875
20
11.8125
11
5.8125
21
11.8125
0
LINE
8
Hilbert
10
5.8125
20
11.8125
11
5.4375
21
11.8125
0
LINE
8
Hilbert
10
5.4375
20
11.8125
11
5.4375
21
11.4375
0
LINE
8
Hilbert
10
5.4375
20
11.4375
11
5.8125
21
11.4375
0
LINE
8
Hilbert
10
5.8125
20
11.4375
11
5.8125
21
11.0625
0
LINE
8
Hilbert
10
5.8125
20
11.0625
11
5.8125
21
10.6875
0
LINE
8
Hilbert
10
5.8125
20
10.6875
11
5.4375
21
10.6875
0
LINE
8
Hilbert
10
5.4375
20
10.6875
11
5.4375
21
11.0625
0
LINE
8
Hilbert
10
5.4375
20
11.0625
11
5.0625
21
11.0625
0
LINE
8
Hilbert
10
5.0625
20
11.0625
11
5.0625
21
10.6875
0
LINE
8
Hilbert
10
5.0625
20
10.6875
11
4.6875
21
10.6875
0
LINE
8
Hilbert
10
4.6875
20
10.6875
11
4.6875
21
11.0625
0
LINE
8
Hilbert
10
4.6875
20
11.0625
11
4.6875
21
11.4375
0
LINE
8
Hilbert
10
4.6875
20
11.4375
11
5.0625
21
11.4375
0
LINE
8
Hilbert
10
5.0625
20
11.4375
11
5.0625
21
11.8125
0
LINE
8
Hilbert
10
5.0625
20
11.8125
11
4.6875
21
11.8125
0
LINE
8
Hilbert
10
4.6875
20
11.8125
11
4.3125
21
11.8125
0
LINE
8
Hilbert
10
4.3125
20
11.8125
11
4.3125
21
11.4375
0
LINE
8
Hilbert
10
4.3125
20
11.4375
11
3.9375
21
11.4375
0
LINE
8
Hilbert
10
3.9375
20
11.4375
11
3.9375
21
11.8125
0
LINE
8
Hilbert
10
3.9375
20
11.8125
11
3.5625
21
11.8125
0
LINE
8
Hilbert
10
3.5625
20
11.8125
11
3.1875
21
11.8125
0
LINE
8
Hilbert
10
3.1875
20
11.8125
11
3.1875
21
11.4375
0
LINE
8
Hilbert
10
3.1875
20
11.4375
11
3.5625
21
11.4375
0
LINE
8
Hilbert
10
3.5625
20
11.4375
11
3.5625
21
11.0625
0
LINE
8
Hilbert
10
3.5625
20
11.0625
11
3.1875
21
11.0625
0
LINE
8
Hilbert
10
3.1875
20
11.0625
11
3.1875
21
10.6875
0
LINE
8
Hilbert
10
3.1875
20
10.6875
11
3.5625
21
10.6875
0
LINE
8
Hilbert
10
3.5625
20
10.6875
11
3.9375
21
10.6875
0
LINE
8
Hilbert
10
3.9375
20
10.6875
11
3.9375
21
11.0625
0
LINE
8
Hilbert
10
3.9375
20
11.0625
11
4.3125
21
11.0625
0
LINE
8
Hilbert
10
4.3125
20
11.0625
11
4.3125
21
10.6875
0
LINE
8
Hilbert
10
4.3125
20
10.6875
11
4.3125
21
10.3125
0
LINE
8
Hilbert
10
4.3125
20
10.3125
11
4.3125
21
9.9375
0
LINE
8
Hilbert
10
4.3125
20
9.9375
11
3.9375
21
9.9375
0
LINE
8
Hilbert
10
3.9375
20
9.9375
11
3.9375
21
10.3125
0
LINE
8
Hilbert
10
3.9375
20
10.3125
11
3.5625
21
10.3125
0
LINE
8
Hilbert
10
3.5625
20
10.3125
11
3.1875
21
10.3125
0
LINE
8
Hilbert
10
3.1875
20
10.3125
11
3.1875
21
9.9375
0
LINE
8
Hilbert
10
3.1875
20
9.9375
11
3.5625
21
9.9375
0
LINE
8
Hilbert
10
3.5625
20
9.9375
11
3.5625
21
9.5625
0
LINE
8
Hilbert
10
3.5625
20
9.5625
11
3.1875
21
9.5625
0
LINE
8
Hilbert
10
3.1875
20
9.5625
11
3.1875
21
9.1875
0
LINE
8
Hilbert
10
3.1875
20
9.1875
11
3.5625
21
9.1875
0
LINE
8
Hilbert
10
3.5625
20
9.1875
11
3.9375
21
9.1875
0
LINE
8
Hilbert
10
3.9375
20
9.1875
11
3.9375
21
9.5625
0
LINE
8
Hilbert
10
3.9375
20
9.5625
11
4.3125
21
9.5625
0
LINE
8
Hilbert
10
4.3125
20
9.5625
11
4.3125
21
9.1875
0
LINE
8
Hilbert
10
4.3125
20
9.1875
11
4.6875
21
9.1875
0
LINE
8
Hilbert
10
4.6875
20
9.1875
11
5.0625
21
9.1875
0
LINE
8
Hilbert
10
5.0625
20
9.1875
11
5.0625
21
9.5625
0
LINE
8
Hilbert
10
5.0625
20
9.5625
11
4.6875
21
9.5625
0
LINE
8
Hilbert
10
4.6875
20
9.5625
11
4.6875
21
9.9375
0
LINE
8
Hilbert
10
4.6875
20
9.9375
11
4.6875
21
10.3125
0
LINE
8
Hilbert
10
4.6875
20
10.3125
11
5.0625
21
10.3125
0
LINE
8
Hilbert
10
5.0625
20
10.3125
11
5.0625
21
9.9375
0
LINE
8
Hilbert
10
5.0625
20
9.9375
11
5.4375
21
9.9375
0
LINE
8
Hilbert
10
5.4375
20
9.9375
11
5.4375
21
10.3125
0
LINE
8
Hilbert
10
5.4375
20
10.3125
11
5.8125
21
10.3125
0
LINE
8
Hilbert
10
5.8125
20
10.3125
11
5.8125
21
9.9375
0
LINE
8
Hilbert
10
5.8125
20
9.9375
11
5.8125
21
9.5625
0
LINE
8
Hilbert
10
5.8125
20
9.5625
11
5.4375
21
9.5625
0
LINE
8
Hilbert
10
5.4375
20
9.5625
11
5.4375
21
9.1875
0
LINE
8
Hilbert
10
5.4375
20
9.1875
11
5.8125
21
9.1875
0
LINE
8
Hilbert
10
5.8125
20
9.1875
11
5.8125
21
8.8125
0
LINE
8
Hilbert
10
5.8125
20
8.8125
11
5.8125
21
8.4375
0
LINE
8
Hilbert
10
5.8125
20
8.4375
11
5.4375
21
8.4375
0
LINE
8
Hilbert
10
5.4375
20
8.4375
11
5.4375
21
8.8125
0
LINE
8
Hilbert
10
5.4375
20
8.8125
11
5.0625
21
8.8125
0
LINE
8
Hilbert
10
5.0625
20
8.8125
11
4.6875
21
8.8125
0
LINE
8
Hilbert
10
4.6875
20
8.8125
11
4.6875
21
8.4375
0
LINE
8
Hilbert
10
4.6875
20
8.4375
11
5.0625
21
8.4375
0
LINE
8
Hilbert
10
5.0625
20
8.4375
11
5.0625
21
8.0625
0
LINE
8
Hilbert
10
5.0625
20
8.0625
11
4.6875
21
8.0625
0
LINE
8
Hilbert
10
4.6875
20
8.0625
11
4.6875
21
7.6875
0
LINE
8
Hilbert
10
4.6875
20
7.6875
11
5.0625
21
7.6875
0
LINE
8
Hilbert
10
5.0625
20
7.6875
11
5.4375
21
7.6875
0
LINE
8
Hilbert
10
5.4375
20
7.6875
11
5.4375
21
8.0625
0
LINE
8
Hilbert
10
5.4375
20
8.0625
11
5.8125
21
8.0625
0
LINE
8
Hilbert
10
5.8125
20
8.0625
11
5.8125
21
7.6875
0
LINE
8
Hilbert
10
5.8125
20
7.6875
11
5.8125
21
7.3125
0
LINE
8
Hilbert
10
5.8125
20
7.3125
11
5.4375
21
7.3125
0
LINE
8
Hilbert
10
5.4375
20
7.3125
11
5.4375
21
6.9375
0
LINE
8
Hilbert
10
5.4375
20
6.9375
11
5.8125
21
6.9375
0
LINE
8
Hilbert
10
5.8125
20
6.9375
11
5.8125
21
6.5625
0
LINE
8
Hilbert
10
5.8125
20
6.5625
11
5.8125
21
6.1875
0
LINE
8
Hilbert
10
5.8125
20
6.1875
11
5.4375
21
6.1875
0
LINE
8
Hilbert
10
5.4375
20
6.1875
11
5.4375
21
6.5625
0
LINE
8
Hilbert
10
5.4375
20
6.5625
11
5.0625
21
6.5625
0
LINE
8
Hilbert
10
5.0625
20
6.5625
11
5.0625
21
6.1875
0
LINE
8
Hilbert
10
5.0625
20
6.1875
11
4.6875
21
6.1875
0
LINE
8
Hilbert
10
4.6875
20
6.1875
11
4.6875
21
6.5625
0
LINE
8
Hilbert
10
4.6875
20
6.5625
11
4.6875
21
6.9375
0
LINE
8
Hilbert
10
4.6875
20
6.9375
11
5.0625
21
6.9375
0
LINE
8
Hilbert
10
5.0625
20
6.9375
11
5.0625
21
7.3125
0
LINE
8
Hilbert
10
5.0625
20
7.3125
11
4.6875
21
7.3125
0
LINE
8
Hilbert
10
4.6875
20
7.3125
11
4.3125
21
7.3125
0
LINE
8
Hilbert
10
4.3125
20
7.3125
11
3.9375
21
7.3125
0
LINE
8
Hilbert
10
3.9375
20
7.3125
11
3.9375
21
6.9375
0
LINE
8
Hilbert
10
3.9375
20
6.9375
11
4.3125
21
6.9375
0
LINE
8
Hilbert
10
4.3125
20
6.9375
11
4.3125
21
6.5625
0
LINE
8
Hilbert
10
4.3125
20
6.5625
11
4.3125
21
6.1875
0
LINE
8
Hilbert
10
4.3125
20
6.1875
11
3.9375
21
6.1875
0
LINE
8
Hilbert
10
3.9375
20
6.1875
11
3.9375
21
6.5625
0
LINE
8
Hilbert
10
3.9375
20
6.5625
11
3.5625
21
6.5625
0
LINE
8
Hilbert
10
3.5625
20
6.5625
11
3.5625
21
6.1875
0
LINE
8
Hilbert
10
3.5625
20
6.1875
11
3.1875
21
6.1875
0
LINE
8
Hilbert
10
3.1875
20
6.1875
11
3.1875
21
6.5625
0
LINE
8
Hilbert
10
3.1875
20
6.5625
11
3.1875
21
6.9375
0
LINE
8
Hilbert
10
3.1875
20
6.9375
11
3.5625
21
6.9375
0
LINE
8
Hilbert
10
3.5625
20
6.9375
11
3.5625
21
7.3125
0
LINE
8
Hilbert
10
3.5625
20
7.3125
11
3.1875
21
7.3125
0
LINE
8
Hilbert
10
3.1875
20
7.3125
11
3.1875
21
7.6875
0
LINE
8
Hilbert
10
3.1875
20
7.6875
11
3.1875
21
8.0625
0
LINE
8
Hilbert
10
3.1875
20
8.0625
11
3.5625
21
8.0625
0
LINE
8
Hilbert
10
3.5625
20
8.0625
11
3.5625
21
7.6875
0
LINE
8
Hilbert
10
3.5625
20
7.6875
11
3.9375
21
7.6875
0
LINE
8
Hilbert
10
3.9375
20
7.6875
11
4.3125
21
7.6875
0
LINE
8
Hilbert
10
4.3125
20
7.6875
11
4.3125
21
8.0625
0
LINE
8
Hilbert
10
4.3125
20
8.0625
11
3.9375
21
8.0625
0
LINE
8
Hilbert
10
3.9375
20
8.0625
11
3.9375
21
8.4375
0
LINE
8
Hilbert
10
3.9375
20
8.4375
11
4.3125
21
8.4375
0
LINE
8
Hilbert
10
4.3125
20
8.4375
11
4.3125
21
8.8125
0
LINE
8
Hilbert
10
4.3125
20
8.8125
11
3.9375
21
8.8125
0
LINE
8
Hilbert
10
3.9375
20
8.8125
11
3.5625
21
8.8125
0
LINE
8
Hilbert
10
3.5625
20
8.8125
11
3.5625
21
8.4375
0
LINE
8
Hilbert
10
3.5625
20
8.4375
11
3.1875
21
8.4375
0
LINE
8
Hilbert
10
3.1875
20
8.4375
11
3.1875
21
8.8125
0
LINE
8
Hilbert
10
3.1875
20
8.8125
11
2.8125
21
8.8125
0
LINE
8
Hilbert
10
2.8125
20
8.8125
11
2.8125
21
8.4375
0
LINE
8
Hilbert
10
2.8125
20
8.4375
11
2.4375
21
8.4375
0
LINE
8
Hilbert
10
2.4375
20
8.4375
11
2.4375
21
8.8125
0
LINE
8
Hilbert
10
2.4375
20
8.8125
11
2.0625
21
8.8125
0
LINE
8
Hilbert
10
2.0625
20
8.8125
11
1.6875
21
8.8125
0
LINE
8
Hilbert
10
1.6875
20
8.8125
11
1.6875
21
8.4375
0
LINE
8
Hilbert
10
1.6875
20
8.4375
11
2.0625
21
8.4375
0
LINE
8
Hilbert
10
2.0625
20
8.4375
11
2.0625
21
8.0625
0
LINE
8
Hilbert
10
2.0625
20
8.0625
11
1.6875
21
8.0625
0
LINE
8
Hilbert
10
1.6875
20
8.0625
11
1.6875
21
7.6875
0
LINE
8
Hilbert
10
1.6875
20
7.6875
11
2.0625
21
7.6875
0
LINE
8
Hilbert
10
2.0625
20
7.6875
11
2.4375
21
7.6875
0
LINE
8
Hilbert
10
2.4375
20
7.6875
11
2.4375
21
8.0625
0
LINE
8
Hilbert
10
2.4375
20
8.0625
11
2.8125
21
8.0625
0
LINE
8
Hilbert
10
2.8125
20
8.0625
11
2.8125
21
7.6875
0
LINE
8
Hilbert
10
2.8125
20
7.6875
11
2.8125
21
7.3125
0
LINE
8
Hilbert
10
2.8125
20
7.3125
11
2.4375
21
7.3125
0
LINE
8
Hilbert
10
2.4375
20
7.3125
11
2.4375
21
6.9375
0
LINE
8
Hilbert
10
2.4375
20
6.9375
11
2.8125
21
6.9375
0
LINE
8
Hilbert
10
2.8125
20
6.9375
11
2.8125
21
6.5625
0
LINE
8
Hilbert
10
2.8125
20
6.5625
11
2.8125
21
6.1875
0
LINE
8
Hilbert
10
2.8125
20
6.1875
11
2.4375
21
6.1875
0
LINE
8
Hilbert
10
2.4375
20
6.1875
11
2.4375
21
6.5625
0
LINE
8
Hilbert
10
2.4375
20
6.5625
11
2.0625
21
6.5625
0
LINE
8
Hilbert
10
2.0625
20
6.5625
11
2.0625
21
6.1875
0
LINE
8
Hilbert
10
2.0625
20
6.1875
11
1.6875
21
6.1875
0
LINE
8
Hilbert
10
1.6875
20
6.1875
11
1.6875
21
6.5625
0
LINE
8
Hilbert
10
1.6875
20
6.5625
11
1.6875
21
6.9375
0
LINE
8
Hilbert
10
1.6875
20
6.9375
11
2.0625
21
6.9375
0
LINE
8
Hilbert
10
2.0625
20
6.9375
11
2.0625
21
7.3125
0
LINE
8
Hilbert
10
2.0625
20
7.3125
11
1.6875
21
7.3125
0
LINE
8
Hilbert
10
1.6875
20
7.3125
11
1.3125
21
7.3125
0
LINE
8
Hilbert
10
1.3125
20
7.3125
11
0.9375
21
7.3125
0
LINE
8
Hilbert
10
0.9375
20
7.3125
11
0.9375
21
6.9375
0
LINE
8
Hilbert
10
0.9375
20
6.9375
11
1.3125
21
6.9375
0
LINE
8
Hilbert
10
1.3125
20
6.9375
11
1.3125
21
6.5625
0
LINE
8
Hilbert
10
1.3125
20
6.5625
11
1.3125
21
6.1875
0
LINE
8
Hilbert
10
1.3125
20
6.1875
11
0.9375
21
6.1875
0
LINE
8
Hilbert
10
0.9375
20
6.1875
11
0.9375
21
6.5625
0
LINE
8
Hilbert
10
0.9375
20
6.5625
11
0.5625
21
6.5625
0
LINE
8
Hilbert
10
0.5625
20
6.5625
11
0.5625
21
6.1875
0
LINE
8
Hilbert
10
0.5625
20
6.1875
11
0.1875
21
6.1875
0
LINE
8
Hilbert
10
0.1875
20
6.1875
11
0.1875
21
6.5625
0
LINE
8
Hilbert
10
0.1875
20
6.5625
11
0.1875
21
6.9375
0
LINE
8
Hilbert
10
0.1875
20
6.9375
11
0.5625
21
6.9375
0
LINE
8
Hilbert
10
0.5625
20
6.9375
11
0.5625
21
7.3125
0
LINE
8
Hilbert
10
0.5625
20
7.3125
11
0.1875
21
7.3125
0
LINE
8
Hilbert
10
0.1875
20
7.3125
11
0.1875
21
7.6875
0
LINE
8
Hilbert
10
0.1875
20
7.6875
11
0.1875
21
8.0625
0
LINE
8
Hilbert
10
0.1875
20
8.0625
11
0.5625
21
8.0625
0
LINE
8
Hilbert
10
0.5625
20
8.0625
11
0.5625
21
7.6875
0
LINE
8
Hilbert
10
0.5625
20
7.6875
11
0.9375
21
7.6875
0
LINE
8
Hilbert
10
0.9375
20
7.6875
11
1.3125
21
7.6875
0
LINE
8
Hilbert
10
1.3125
20
7.6875
11
1.3125
21
8.0625
0
LINE
8
Hilbert
10
1.3125
20
8.0625
11
0.9375
21
8.0625
0
LINE
8
Hilbert
10
0.9375
20
8.0625
11
0.9375
21
8.4375
0
LINE
8
Hilbert
10
0.9375
20
8.4375
11
1.3125
21
8.4375
0
LINE
8
Hilbert
10
1.3125
20
8.4375
11
1.3125
21
8.8125
0
LINE
8
Hilbert
10
1.3125
20
8.8125
11
0.9375
21
8.8125
0
LINE
8
Hilbert
10
0.9375
20
8.8125
11
0.5625
21
8.8125
0
LINE
8
Hilbert
10
0.5625
20
8.8125
11
0.5625
21
8.4375
0
LINE
8
Hilbert
10
0.5625
20
8.4375
11
0.1875
21
8.4375
0
LINE
8
Hilbert
10
0.1875
20
8.4375
11
0.1875
21
8.8125
0
LINE
8
Hilbert
10
0.1875
20
8.8125
11
0.1875
21
9.1875
0
LINE
8
Hilbert
10
0.1875
20
9.1875
11
0.5625
21
9.1875
0
LINE
8
Hilbert
10
0.5625
20
9.1875
11
0.5625
21
9.5625
0
LINE
8
Hilbert
10
0.5625
20
9.5625
11
0.1875
21
9.5625
0
LINE
8
Hilbert
10
0.1875
20
9.5625
11
0.1875
21
9.9375
0
LINE
8
Hilbert
10
0.1875
20
9.9375
11
0.1875
21
10.3125
0
LINE
8
Hilbert
10
0.1875
20
10.3125
11
0.5625
21
10.3125
0
LINE
8
Hilbert
10
0.5625
20
10.3125
11
0.5625
21
9.9375
0
LINE
8
Hilbert
10
0.5625
20
9.9375
11
0.9375
21
9.9375
0
LINE
8
Hilbert
10
0.9375
20
9.9375
11
0.9375
21
10.3125
0
LINE
8
Hilbert
10
0.9375
20
10.3125
11
1.3125
21
10.3125
0
LINE
8
Hilbert
10
1.3125
20
10.3125
11
1.3125
21
9.9375
0
LINE
8
Hilbert
10
1.3125
20
9.9375
11
1.3125
21
9.5625
0
LINE
8
Hilbert
10
1.3125
20
9.5625
11
0.9375
21
9.5625
0
LINE
8
Hilbert
10
0.9375
20
9.5625
11
0.9375
21
9.1875
0
LINE
8
Hilbert
10
0.9375
20
9.1875
11
1.3125
21
9.1875
0
LINE
8
Hilbert
10
1.3125
20
9.1875
11
1.6875
21
9.1875
0
LINE
8
Hilbert
10
1.6875
20
9.1875
11
1.6875
21
9.5625
0
LINE
8
Hilbert
10
1.6875
20
9.5625
11
2.0625
21
9.5625
0
LINE
8
Hilbert
10
2.0625
20
9.5625
11
2.0625
21
9.1875
0
LINE
8
Hilbert
10
2.0625
20
9.1875
11
2.4375
21
9.1875
0
LINE
8
Hilbert
10
2.4375
20
9.1875
11
2.8125
21
9.1875
0
LINE
8
Hilbert
10
2.8125
20
9.1875
11
2.8125
21
9.5625
0
LINE
8
Hilbert
10
2.8125
20
9.5625
11
2.4375
21
9.5625
0
LINE
8
Hilbert
10
2.4375
20
9.5625
11
2.4375
21
9.9375
0
LINE
8
Hilbert
10
2.4375
20
9.9375
11
2.8125
21
9.9375
0
LINE
8
Hilbert
10
2.8125
20
9.9375
11
2.8125
21
10.3125
0
LINE
8
Hilbert
10
2.8125
20
10.3125
11
2.4375
21
10.3125
0
LINE
8
Hilbert
10
2.4375
20
10.3125
11
2.0625
21
10.3125
0
LINE
8
Hilbert
10
2.0625
20
10.3125
11
2.0625
21
9.9375
0
LINE
8
Hilbert
10
2.0625
20
9.9375
11
1.6875
21
9.9375
0
LINE
8
Hilbert
10
1.6875
20
9.9375
11
1.6875
21
10.3125
0
LINE
8
Hilbert
10
1.6875
20
10.3125
11
1.6875
21
10.6875
0
LINE
8
Hilbert
10
1.6875
20
10.6875
11
1.6875
21
11.0625
0
LINE
8
Hilbert
10
1.6875
20
11.0625
11
2.0625
21
11.0625
0
LINE
8
Hilbert
10
2.0625
20
11.0625
11
2.0625
21
10.6875
0
LINE
8
Hilbert
10
2.0625
20
10.6875
11
2.4375
21
10.6875
0
LINE
8
Hilbert
10
2.4375
20
10.6875
11
2.8125
21
10.6875
0
LINE
8
Hilbert
10
2.8125
20
10.6875
11
2.8125
21
11.0625
0
LINE
8
Hilbert
10
2.8125
20
11.0625
11
2.4375
21
11.0625
0
LINE
8
Hilbert
10
2.4375
20
11.0625
11
2.4375
21
11.4375
0
LINE
8
Hilbert
10
2.4375
20
11.4375
11
2.8125
21
11.4375
0
LINE
8
Hilbert
10
2.8125
20
11.4375
11
2.8125
21
11.8125
0
LINE
8
Hilbert
10
2.8125
20
11.8125
11
2.4375
21
11.8125
0
LINE
8
Hilbert
10
2.4375
20
11.8125
11
2.0625
21
11.8125
0
LINE
8
Hilbert
10
2.0625
20
11.8125
11
2.0625
21
11.4375
0
LINE
8
Hilbert
10
2.0625
20
11.4375
11
1.6875
21
11.4375
0
LINE
8
Hilbert
10
1.6875
20
11.4375
11
1.6875
21
11.8125
0
LINE
8
Hilbert
10
1.6875
20
11.8125
11
1.3125
21
11.8125
0
LINE
8
Hilbert
10
1.3125
20
11.8125
11
0.9375
21
11.8125
0
LINE
8
Hilbert
10
0.9375
20
11.8125
11
0.9375
21
11.4375
0
LINE
8
Hilbert
10
0.9375
20
11.4375
11
1.3125
21
11.4375
0
LINE
8
Hilbert
10
1.3125
20
11.4375
11
1.3125
21
11.0625
0
LINE
8
Hilbert
10
1.3125
20
11.0625
11
1.3125
21
10.6875
0
LINE
8
Hilbert
10
1.3125
20
10.6875
11
0.9375
21
10.6875
0
LINE
8
Hilbert
10
0.9375
20
10.6875
11
0.9375
21
11.0625
0
LINE
8
Hilbert
10
0.9375
20
11.0625
11
0.5625
21
11.0625
0
LINE
8
Hilbert
10
0.5625
20
11.0625
11
0.5625
21
10.6875
0
LINE
8
Hilbert
10
0.5625
20
10.6875
11
0.1875
21
10.6875
0
LINE
8
Hilbert
10
0.1875
20
10.6875
11
0.1875
21
11.0625
0
LINE
8
Hilbert
10
0.1875
20
11.0625
11
0.1875
21
11.4375
0
LINE
8
Hilbert
10
0.1875
20
11.4375
11
0.5625
21
11.4375
0
LINE
8
Hilbert
10
0.5625
20
11.4375
11
0.5625
21
11.8125
0
LINE
8
Hilbert
10
0.5625
20
11.8125
11
0.1875
21
11.8125
0
ENDSEC
0
EOF
