999
"DXF R12 Output" (www.mydxf.blogspot.com)
 0 
SECTION
 2 
HEADER
 9 
$ACADVER
 1 
AC1009
 9 
$EXTMIN
 10 
 0 
 20 
 0 
 9 
$EXTMAX
 10 
 8.5 
 20 
 11 
 0 
ENDSEC
 0 
SECTION
 2 
ENTITIES
0
LINE
8
Layer 1
10
0.000000
20
83.820000
11
45.155500
21
83.820000
0
LINE
8
Layer 1
10
45.155500
20
83.820000
11
45.155500
21
55.880000
0
LINE
8
Layer 1
10
45.155500
20
55.880000
11
0.000000
21
55.880000
0
LINE
8
Layer 1
10
0.000000
20
55.880000
11
0.000000
21
83.820000
0
LINE
8
Layer 1
10
-28.222200
20
112.042000
11
45.155500
21
112.042000
0
LINE
8
Layer 1
10
45.155500
20
112.042000
11
45.155500
21
55.880000
0
LINE
8
Layer 1
10
45.155500
20
55.880000
11
-28.222200
21
55.880000
0
LINE
8
Layer 1
10
-28.222200
20
55.880000
11
-28.222200
21
112.042000
0
LINE
8
Layer 1
10
16.205200
20
65.251800
11
18.237200
21
65.251800
0
LINE
8
Layer 1
10
18.237200
20
65.251800
11
18.796000
21
65.251800
0
LINE
8
Layer 1
10
18.796000
20
65.251800
11
18.796000
21
67.182200
0
LINE
8
Layer 1
10
18.796000
20
67.182200
11
20.828000
21
67.182200
0
LINE
8
Layer 1
10
20.828000
20
67.182200
11
20.828000
21
65.251800
0
LINE
8
Layer 1
10
20.828000
20
65.251800
11
26.517600
21
65.251800
0
LINE
8
Layer 1
10
26.517600
20
65.251800
11
26.517600
21
65.810600
0
LINE
8
Layer 1
10
26.517600
20
65.810600
11
28.549600
21
65.810600
0
LINE
8
Layer 1
10
28.549600
20
65.810600
11
28.549600
21
65.251800
0
LINE
8
Layer 1
10
28.549600
20
65.251800
11
29.108400
21
65.251800
0
LINE
8
Layer 1
10
29.108400
20
65.251800
11
29.108400
21
65.810600
0
LINE
8
Layer 1
10
29.108400
20
65.810600
11
31.140400
21
65.810600
0
LINE
8
Layer 1
10
31.140400
20
65.810600
11
31.140400
21
65.251800
0
LINE
8
Layer 1
10
31.140400
20
65.251800
11
31.318200
21
65.251800
0
LINE
8
Layer 1
10
31.318200
20
65.251800
11
31.318200
21
61.340200
0
LINE
8
Layer 1
10
31.318200
20
61.340200
11
36.779200
21
61.340200
0
LINE
8
Layer 1
10
36.779200
20
61.340200
11
36.779200
21
55.600100
0
LINE
8
Layer 1
10
36.779200
20
55.600100
11
11.988800
21
55.600100
0
LINE
8
Layer 1
10
11.988800
20
55.600100
11
11.988800
21
65.251800
0
LINE
8
Layer 1
10
11.988800
20
65.251800
11
13.284200
21
65.251800
0
LINE
8
Layer 1
10
13.284200
20
65.251800
11
15.316200
21
65.251800
0
LINE
8
Layer 1
10
15.316200
20
65.251800
11
16.205200
21
65.251800
0
LINE
8
Layer 1
10
21.463000
20
72.892400
11
22.021800
21
72.892400
0
LINE
8
Layer 1
10
22.021800
20
72.892400
11
22.021800
21
75.686100
0
LINE
8
Layer 1
10
22.021800
20
75.686100
11
21.259801
21
76.449511
0
LINE
8
Layer 1
10
21.259801
20
76.449511
11
0.000000
21
76.449500
0
LINE
8
Layer 1
10
0.000000
20
76.449500
11
0.000000
21
83.820000
0
LINE
8
Layer 1
10
0.000000
20
83.820000
11
45.212000
21
83.820000
0
LINE
8
Layer 1
10
45.212000
20
83.820000
11
45.212000
21
76.449500
0
LINE
8
Layer 1
10
45.212000
20
76.449500
11
23.952200
21
76.449500
0
LINE
8
Layer 1
10
23.952200
20
76.449500
11
23.190201
21
75.686089
0
LINE
8
Layer 1
10
23.190201
20
75.686089
11
23.190200
21
72.892400
0
LINE
8
Layer 1
10
23.190200
20
72.892400
11
23.749000
21
72.892400
0
LINE
8
Layer 1
10
23.749000
20
72.892400
11
23.749000
21
72.892400
0
LINE
8
Layer 1
10
23.749000
20
72.892400
11
24.287797
21
72.669198
0
LINE
8
Layer 1
10
24.287797
20
72.669198
11
24.510999
21
72.130401
0
LINE
8
Layer 1
10
24.510999
20
72.130401
11
24.287797
21
71.591604
0
LINE
8
Layer 1
10
24.287797
20
71.591604
11
23.749000
21
71.368402
0
LINE
8
Layer 1
10
23.749000
20
71.368402
11
23.749000
21
71.368400
0
LINE
8
Layer 1
10
23.749000
20
71.368400
11
21.463000
21
71.368400
0
LINE
8
Layer 1
10
21.463000
20
71.368400
11
21.463000
21
71.368400
0
LINE
8
Layer 1
10
21.463000
20
71.368400
11
20.924203
21
71.591602
0
LINE
8
Layer 1
10
20.924203
20
71.591602
11
20.701001
21
72.130399
0
LINE
8
Layer 1
10
20.701001
20
72.130399
11
20.924203
21
72.669196
0
LINE
8
Layer 1
10
20.924203
20
72.669196
11
21.463000
21
72.892398
0
LINE
8
Layer 1
10
40.396100
20
70.464100
11
41.483696
21
70.244509
0
LINE
8
Layer 1
10
41.483696
20
70.244509
11
42.371796
21
69.645691
0
LINE
8
Layer 1
10
42.371796
20
69.645691
11
42.970549
21
68.757578
0
LINE
8
Layer 1
10
42.970549
20
68.757578
11
43.190100
21
67.670100
0
LINE
8
Layer 1
10
43.190100
20
67.670100
11
42.970549
21
66.582622
0
LINE
8
Layer 1
10
42.970549
20
66.582622
11
42.371796
21
65.694509
0
LINE
8
Layer 1
10
42.371796
20
65.694509
11
41.483696
21
65.095691
0
LINE
8
Layer 1
10
41.483696
20
65.095691
11
40.396100
21
64.876100
0
LINE
8
Layer 1
10
40.396100
20
64.876100
11
39.308504
21
65.095691
0
LINE
8
Layer 1
10
39.308504
20
65.095691
11
38.420404
21
65.694509
0
LINE
8
Layer 1
10
38.420404
20
65.694509
11
37.821651
21
66.582622
0
LINE
8
Layer 1
10
37.821651
20
66.582622
11
37.602100
21
67.670100
0
LINE
8
Layer 1
10
37.602100
20
67.670100
11
37.821651
21
68.757578
0
LINE
8
Layer 1
10
37.821651
20
68.757578
11
38.420404
21
69.645691
0
LINE
8
Layer 1
10
38.420404
20
69.645691
11
39.308504
21
70.244509
0
LINE
8
Layer 1
10
39.308504
20
70.244509
11
40.396100
21
70.464100
0
LINE
8
Layer 1
10
4.836160
20
70.464100
11
5.923756
21
70.244509
0
LINE
8
Layer 1
10
5.923756
20
70.244509
11
6.811856
21
69.645691
0
LINE
8
Layer 1
10
6.811856
20
69.645691
11
7.410609
21
68.757578
0
LINE
8
Layer 1
10
7.410609
20
68.757578
11
7.630160
21
67.670100
0
LINE
8
Layer 1
10
7.630160
20
67.670100
11
7.410609
21
66.582622
0
LINE
8
Layer 1
10
7.410609
20
66.582622
11
6.811856
21
65.694509
0
LINE
8
Layer 1
10
6.811856
20
65.694509
11
5.923756
21
65.095691
0
LINE
8
Layer 1
10
5.923756
20
65.095691
11
4.836160
21
64.876100
0
LINE
8
Layer 1
10
4.836160
20
64.876100
11
3.748564
21
65.095691
0
LINE
8
Layer 1
10
3.748564
20
65.095691
11
2.860464
21
65.694509
0
LINE
8
Layer 1
10
2.860464
20
65.694509
11
2.261711
21
66.582622
0
LINE
8
Layer 1
10
2.261711
20
66.582622
11
2.042160
21
67.670100
0
LINE
8
Layer 1
10
2.042160
20
67.670100
11
2.261711
21
68.757578
0
LINE
8
Layer 1
10
2.261711
20
68.757578
11
2.860464
21
69.645691
0
LINE
8
Layer 1
10
2.860464
20
69.645691
11
3.748564
21
70.244509
0
LINE
8
Layer 1
10
3.748564
20
70.244509
11
4.836160
21
70.464100
0
LINE
8
Layer 1
10
23.571200
20
75.427300
11
24.739600
21
75.427300
0
LINE
8
Layer 1
10
24.739600
20
75.427300
11
24.739600
21
75.046300
0
LINE
8
Layer 1
10
24.739600
20
75.046300
11
35.893300
21
75.046300
0
LINE
8
Layer 1
10
35.893300
20
75.046300
11
35.893300
21
73.928700
0
LINE
8
Layer 1
10
35.893300
20
73.928700
11
23.571200
21
73.928700
0
LINE
8
Layer 1
10
23.571200
20
73.928700
11
23.571200
21
75.427300
0
LINE
8
Layer 1
10
21.640800
20
75.427300
11
20.472400
21
75.427300
0
LINE
8
Layer 1
10
20.472400
20
75.427300
11
20.472400
21
75.046300
0
LINE
8
Layer 1
10
20.472400
20
75.046300
11
9.318690
21
75.046300
0
LINE
8
Layer 1
10
9.318690
20
75.046300
11
9.318690
21
73.928700
0
LINE
8
Layer 1
10
9.318690
20
73.928700
11
21.640800
21
73.928700
0
LINE
8
Layer 1
10
21.640800
20
73.928700
11
21.640800
21
75.427300
0
LINE
8
Layer 1
10
36.779200
20
75.046300
11
45.212000
21
75.046300
0
LINE
8
Layer 1
10
45.212000
20
75.046300
11
45.212000
21
73.928700
0
LINE
8
Layer 1
10
45.212000
20
73.928700
11
36.779200
21
73.928700
0
LINE
8
Layer 1
10
36.779200
20
73.928700
11
36.779200
21
75.046300
0
LINE
8
Layer 1
10
8.432790
20
75.046300
11
0.000000
21
75.046300
0
LINE
8
Layer 1
10
0.000000
20
75.046300
11
0.000000
21
73.928700
0
LINE
8
Layer 1
10
0.000000
20
73.928700
11
8.432790
21
73.928700
0
LINE
8
Layer 1
10
8.432790
20
73.928700
11
8.432790
21
75.046300
0
LINE
8
Layer 1
10
14.813300
20
68.082500
11
14.813300
21
67.771700
0
LINE
8
Layer 1
10
14.813300
20
67.771700
11
15.321300
21
67.771700
0
LINE
8
Layer 1
10
15.321300
20
67.771700
11
15.321300
21
66.146100
0
LINE
8
Layer 1
10
15.321300
20
66.146100
11
13.289300
21
66.146100
0
LINE
8
Layer 1
10
13.289300
20
66.146100
11
13.289300
21
67.771700
0
LINE
8
Layer 1
10
13.289300
20
67.771700
11
13.797300
21
67.771700
0
LINE
8
Layer 1
10
13.797300
20
67.771700
11
13.797300
21
68.082500
0
LINE
8
Layer 1
10
13.797300
20
68.082500
11
13.289300
21
68.082500
0
LINE
8
Layer 1
10
13.289300
20
68.082500
11
13.289300
21
70.108200
0
LINE
8
Layer 1
10
13.289300
20
70.108200
11
13.797300
21
70.108200
0
LINE
8
Layer 1
10
13.797300
20
70.108200
11
13.797300
21
70.709400
0
LINE
8
Layer 1
10
13.797300
20
70.709400
11
13.289300
21
70.709400
0
LINE
8
Layer 1
10
13.289300
20
70.709400
11
13.289300
21
73.054600
0
LINE
8
Layer 1
10
13.289300
20
73.054600
11
15.321300
21
73.054600
0
LINE
8
Layer 1
10
15.321300
20
73.054600
11
15.321300
21
70.709400
0
LINE
8
Layer 1
10
15.321300
20
70.709400
11
14.813300
21
70.709400
0
LINE
8
Layer 1
10
14.813300
20
70.709400
11
14.813300
21
70.108200
0
LINE
8
Layer 1
10
14.813300
20
70.108200
11
15.321300
21
70.108200
0
LINE
8
Layer 1
10
15.321300
20
70.108200
11
15.321300
21
68.082500
0
LINE
8
Layer 1
10
15.321300
20
68.082500
11
14.813300
21
68.082500
0
LINE
8
Layer 1
10
20.838100
20
68.584500
11
20.838100
21
68.076500
0
LINE
8
Layer 1
10
20.838100
20
68.076500
11
18.806100
21
68.076500
0
LINE
8
Layer 1
10
18.806100
20
68.076500
11
18.806100
21
68.584500
0
LINE
8
Layer 1
10
18.806100
20
68.584500
11
18.247300
21
68.584500
0
LINE
8
Layer 1
10
18.247300
20
68.584500
11
18.247300
21
66.146100
0
LINE
8
Layer 1
10
18.247300
20
66.146100
11
16.215300
21
66.146100
0
LINE
8
Layer 1
10
16.215300
20
66.146100
11
16.215300
21
70.108200
0
LINE
8
Layer 1
10
16.215300
20
70.108200
11
18.247300
21
70.108200
0
LINE
8
Layer 1
10
18.247300
20
70.108200
11
18.247300
21
69.600500
0
LINE
8
Layer 1
10
18.247300
20
69.600500
11
18.806100
21
69.600500
0
LINE
8
Layer 1
10
18.806100
20
69.600500
11
18.806100
21
70.108200
0
LINE
8
Layer 1
10
18.806100
20
70.108200
11
20.838100
21
70.108200
0
LINE
8
Layer 1
10
20.838100
20
70.108200
11
20.838100
21
69.600500
0
LINE
8
Layer 1
10
20.838100
20
69.600500
11
21.346100
21
69.600500
0
LINE
8
Layer 1
10
21.346100
20
69.600500
11
21.346100
21
70.209800
0
LINE
8
Layer 1
10
21.346100
20
70.209800
11
23.438300
21
70.209800
0
LINE
8
Layer 1
10
23.438300
20
70.209800
11
23.438300
21
68.076500
0
LINE
8
Layer 1
10
23.438300
20
68.076500
11
21.346100
21
68.076500
0
LINE
8
Layer 1
10
21.346100
20
68.076500
11
21.346100
21
68.584500
0
LINE
8
Layer 1
10
21.346100
20
68.584500
11
20.838100
21
68.584500
0
LINE
8
Layer 1
10
25.064700
20
68.066400
11
24.302700
21
68.066400
0
LINE
8
Layer 1
10
24.302700
20
68.066400
11
24.302700
21
70.200000
0
LINE
8
Layer 1
10
24.302700
20
70.200000
11
26.410900
21
70.200000
0
LINE
8
Layer 1
10
26.410900
20
70.200000
11
26.410900
21
68.218800
0
LINE
8
Layer 1
10
26.410900
20
68.218800
11
26.512500
21
68.218800
0
LINE
8
Layer 1
10
26.512500
20
68.218800
11
28.544500
21
68.218800
0
LINE
8
Layer 1
10
28.544500
20
68.218800
11
28.544500
21
69.239800
0
LINE
8
Layer 1
10
28.544500
20
69.239800
11
27.071300
21
69.239800
0
LINE
8
Layer 1
10
27.071300
20
69.239800
11
27.071300
21
70.961700
0
LINE
8
Layer 1
10
27.071300
20
70.961700
11
28.036500
21
70.961700
0
LINE
8
Layer 1
10
28.036500
20
70.961700
11
28.036500
21
73.044500
0
LINE
8
Layer 1
10
28.036500
20
73.044500
11
30.068500
21
73.044500
0
LINE
8
Layer 1
10
30.068500
20
73.044500
11
30.068500
21
70.961700
0
LINE
8
Layer 1
10
30.068500
20
70.961700
11
31.124900
21
70.961700
0
LINE
8
Layer 1
10
31.124900
20
70.961700
11
31.124900
21
70.606100
0
LINE
8
Layer 1
10
31.124900
20
70.606100
11
31.973500
21
70.606100
0
LINE
8
Layer 1
10
31.973500
20
70.606100
11
32.481500
21
70.606100
0
LINE
8
Layer 1
10
32.481500
20
70.606100
11
32.481500
21
70.961700
0
LINE
8
Layer 1
10
32.481500
20
70.961700
11
31.973500
21
70.961700
0
LINE
8
Layer 1
10
31.973500
20
70.961700
11
31.973500
21
73.044500
0
LINE
8
Layer 1
10
31.973500
20
73.044500
11
34.005500
21
73.044500
0
LINE
8
Layer 1
10
34.005500
20
73.044500
11
34.005500
21
70.961700
0
LINE
8
Layer 1
10
34.005500
20
70.961700
11
33.497500
21
70.961700
0
LINE
8
Layer 1
10
33.497500
20
70.961700
11
33.497500
21
70.606100
0
LINE
8
Layer 1
10
33.497500
20
70.606100
11
34.005500
21
70.606100
0
LINE
8
Layer 1
10
34.005500
20
70.606100
11
34.005500
21
68.218800
0
LINE
8
Layer 1
10
34.005500
20
68.218800
11
31.973500
21
68.218800
0
LINE
8
Layer 1
10
31.973500
20
68.218800
11
31.973500
21
69.591200
0
LINE
8
Layer 1
10
31.973500
20
69.591200
11
31.124900
21
69.591200
0
LINE
8
Layer 1
10
31.124900
20
69.591200
11
31.124900
21
69.239800
0
LINE
8
Layer 1
10
31.124900
20
69.239800
11
29.560500
21
69.239800
0
LINE
8
Layer 1
10
29.560500
20
69.239800
11
29.560500
21
68.218800
0
LINE
8
Layer 1
10
29.560500
20
68.218800
11
31.135300
21
68.218800
0
LINE
8
Layer 1
10
31.135300
20
68.218800
11
31.135300
21
66.694800
0
LINE
8
Layer 1
10
31.135300
20
66.694800
11
29.103300
21
66.694800
0
LINE
8
Layer 1
10
29.103300
20
66.694800
11
29.103300
21
66.948800
0
LINE
8
Layer 1
10
29.103300
20
66.948800
11
28.544500
21
66.948800
0
LINE
8
Layer 1
10
28.544500
20
66.948800
11
28.544500
21
66.694800
0
LINE
8
Layer 1
10
28.544500
20
66.694800
11
26.512500
21
66.694800
0
LINE
8
Layer 1
10
26.512500
20
66.694800
11
26.512500
21
66.948800
0
LINE
8
Layer 1
10
26.512500
20
66.948800
11
26.182300
21
66.948800
0
LINE
8
Layer 1
10
26.182300
20
66.948800
11
26.182300
21
66.948800
0
LINE
8
Layer 1
10
26.182300
20
66.948800
11
25.747285
21
67.036628
0
LINE
8
Layer 1
10
25.747285
20
67.036628
11
25.392043
21
67.276143
0
LINE
8
Layer 1
10
25.392043
20
67.276143
11
25.152528
21
67.631385
0
LINE
8
Layer 1
10
25.152528
20
67.631385
11
25.064700
21
68.066400
0
LINE
8
Layer 1
10
39.712300
20
61.116700
11
43.515200
21
61.116700
0
LINE
8
Layer 1
10
43.515200
20
61.116700
11
43.515200
21
56.392500
0
LINE
8
Layer 1
10
43.515200
20
56.392500
11
38.760400
21
56.392500
0
LINE
8
Layer 1
10
38.760400
20
56.392500
11
38.760400
21
60.481700
0
LINE
8
Layer 1
10
38.760400
20
60.481700
11
38.760400
21
60.481700
0
LINE
8
Layer 1
10
38.760400
20
60.481700
11
38.625939
21
61.157181
0
LINE
8
Layer 1
10
38.625939
20
61.157181
11
38.258327
21
61.713176
0
LINE
8
Layer 1
10
38.258327
20
61.713176
11
37.711221
21
62.090314
0
LINE
8
Layer 1
10
37.711221
20
62.090314
11
37.038280
21
62.229220
0
LINE
8
Layer 1
10
37.038280
20
62.229220
11
37.038300
21
62.229200
0
LINE
8
Layer 1
10
37.038300
20
62.229200
11
32.872700
21
62.229200
0
LINE
8
Layer 1
10
32.872700
20
62.229200
11
32.872700
21
64.637100
0
LINE
8
Layer 1
10
32.872700
20
64.637100
11
32.872700
21
65.099400
0
LINE
8
Layer 1
10
32.872700
20
65.099400
11
31.983700
21
65.099400
0
LINE
8
Layer 1
10
31.983700
20
65.099400
11
31.983700
21
67.334600
0
LINE
8
Layer 1
10
31.983700
20
67.334600
11
34.015700
21
67.334600
0
LINE
8
Layer 1
10
34.015700
20
67.334600
11
34.015700
21
65.099400
0
LINE
8
Layer 1
10
34.015700
20
65.099400
11
34.015700
21
64.637100
0
LINE
8
Layer 1
10
34.015700
20
64.637100
11
36.098500
21
64.637100
0
LINE
8
Layer 1
10
36.098500
20
64.637100
11
36.098500
21
63.245200
0
LINE
8
Layer 1
10
36.098500
20
63.245200
11
37.038300
21
63.245200
0
LINE
8
Layer 1
10
37.038300
20
63.245200
11
37.038300
21
63.245200
0
LINE
8
Layer 1
10
37.038300
20
63.245200
11
37.967098
21
63.084148
0
LINE
8
Layer 1
10
37.967098
20
63.084148
11
38.759820
21
62.638352
0
LINE
8
Layer 1
10
38.759820
20
62.638352
11
39.360294
21
61.963850
0
LINE
8
Layer 1
10
39.360294
20
61.963850
11
39.712350
21
61.116680
 0 
ENDSEC
 0 
EOF