999
FreeCAD v0.20 29177 (Git)
  0
SECTION
  2
HEADER
  9
$ACADVER
  1
AC1014
  9
$ACADMAINTVER
 70
     9
  9
$DWGCODEPAGE
  3
ANSI_1252
  9
$TEXTSTYLE
  7
STANDARD
  9
$DIMSTYLE
  2
STANDARD
  9
$DIMTXSTY
  7
STANDARD
  9
$CMLSTYLE
  2
STANDARD
  9
$LUNITS
 70
2
  9
$INSUNITS
 70
4
  9
$PEXTMAX
 10
50
 20
50
 30
50
  9
$PEXTMIN
 10
0
 20
0
 30
0
  9
$HANDSEED
  5
FFFF
  0
ENDSEC
  0
SECTION
  2
CLASSES
  0
CLASS
  1
ACDBDICTIONARYWDFLT
  2
AcDbDictionaryWithDefault
  3
ObjectDBX Classes
 90
        0
280
     0
281
     0
  0
CLASS
  1
XRECORD
  2
AcDbXrecord
  3
ObjectDBX Classes
 90
        0
280
     0
281
     0
  0
CLASS
  1
LWPOLYLINE
  2
AcDbPolyline
  3
ObjectDBX Classes
 90
        0
280
     0
281
     1
  0
ENDSEC
  0
SECTION
  2
TABLES
  0
TABLE
  2
VPORT
  5
20
330
0
100
AcDbSymbolTable
 70
     1
  0
VPORT
  5
21
330
20
100
AcDbSymbolTableRecord
100
AcDbViewportTableRecord
  2
*ACTIVE
 70
     0
  0
ENDTAB
  0
TABLE
  2
LTYPE
  5
22
330
0
100
AcDbSymbolTable
 70
     1
  0
LTYPE
  5
23
330
21
100
AcDbSymbolTableRecord
100
AcDbLinetypeTableRecord
  2
BYBLOCK
 70
     0
  3

 72
    65
 73
     0
 40
0.0
  0
LTYPE
  5
24
330
21
100
AcDbSymbolTableRecord
100
AcDbLinetypeTableRecord
  2
BYLAYER
 70
     0
  3

 72
    65
 73
     0
 40
0.0
  0
LTYPE
  5
25
330
21
100
AcDbSymbolTableRecord
100
AcDbLinetypeTableRecord
  2
CONTINUOUS
 70
     0
  3
Solid line
 72
    65
 73
     0
 40
0.0
  0
ENDTAB
  0
TABLE
  2
LAYER
  5
B34
330
0
100
AcDbSymbolTable
 70
9
  0
LAYER
  5
B35
330
B34
100
AcDbSymbolTableRecord
100
AcDbLayerTableRecord
  2
0
 70
   0
 62
   7
  6
CONTINUOUS
  0
LAYER
  5
B36
330
B34
100
AcDbSymbolTableRecord
100
AcDbLayerTableRecord
  2
none
 70
    0
 62
    7
  6
CONTINUOUS
  0
LAYER
  5
B37
330
B34
100
AcDbSymbolTableRecord
100
AcDbLayerTableRecord
  2
Shape012
 70
    0
 62
    7
  6
CONTINUOUS
  0
LAYER
  5
B38
330
B34
100
AcDbSymbolTableRecord
100
AcDbLayerTableRecord
  2
Shape010
 70
    0
 62
    7
  6
CONTINUOUS
  0
LAYER
  5
B39
330
B34
100
AcDbSymbolTableRecord
100
AcDbLayerTableRecord
  2
Shape008
 70
    0
 62
    7
  6
CONTINUOUS
  0
LAYER
  5
B3A
330
B34
100
AcDbSymbolTableRecord
100
AcDbLayerTableRecord
  2
Shape006
 70
    0
 62
    7
  6
CONTINUOUS
  0
LAYER
  5
B3B
330
B34
100
AcDbSymbolTableRecord
100
AcDbLayerTableRecord
  2
Shape004
 70
    0
 62
    7
  6
CONTINUOUS
  0
LAYER
  5
B3C
330
B34
100
AcDbSymbolTableRecord
100
AcDbLayerTableRecord
  2
Shape002
 70
    0
 62
    7
  6
CONTINUOUS
  0
LAYER
  5
B3D
330
B34
100
AcDbSymbolTableRecord
100
AcDbLayerTableRecord
  2
Shape
 70
    0
 62
    7
  6
CONTINUOUS
  0
ENDTAB
  0
TABLE
  2
STYLE
  5
70
330
0
100
AcDbSymbolTable
 70
     2
  0
STYLE
  5
71
330
70
100
AcDbSymbolTableRecord
100
AcDbTextStyleTableRecord
  2
STANDARD
 70
     0
 40
0.0
 41
1.0
 50
0.0
 71
     0
 42
2.5
  3
arial.ttf
  4

  0
STYLE
  5
72
330
70
100
AcDbSymbolTableRecord
100
AcDbTextStyleTableRecord
  2
ANNOTATIVE
 70
     0
 40
0.0
 41
1.0
 50
0.0
 71
     0
 42
2.5
  3
arial.ttf
  4

  0
ENDTAB
  0
TABLE
  2
VIEW
  5
73
330
0
100
AcDbSymbolTable
 70
     0
  0
ENDTAB
  0
TABLE
  2
UCS
  5
74
330
0
100
AcDbSymbolTable
 70
     0
  0
ENDTAB
  0
TABLE
  2
APPID
  5
75
330
0
100
AcDbSymbolTable
 70
     2
  0
APPID
  5
76
330
75
100
AcDbSymbolTableRecord
100
AcDbRegAppTableRecord
  2
ACAD
 70
     0
  0
APPID
  5
77
330
75
100
AcDbSymbolTableRecord
100
AcDbRegAppTableRecord
  2
ACADANNOTATIVE
 70
     0
  0
ENDTAB
  0
TABLE
  2
DIMSTYLE
  5
78
330
0
100
AcDbSymbolTable
 70
     2
  0
DIMSTYLE
105
79
330
78
100
AcDbSymbolTableRecord
100
AcDbDimStyleTableRecord
  2
STANDARD
 70
     0
  3

  4

  5

  6

  7

 40
0.0
 41
2.5
 42
0.625
 43
3.75
 44
1.25
 45
0.0
 46
0.0
 47
0.0
 48
0.0
140
2.5
141
2.5
142
0.0
143
0.03937007874016
144
1.0
145
0.0
146
1.0
147
0.625
 71
     0
 72
     0
 73
     0
 74
     0
 75
     0
 76
     0
 77
     1
 78
     8
170
     0
171
     3
172
     1
173
     0
174
     0
175
     0
176
     0
177
     0
178
     0
270
     2
271
     2
272
     2
273
     2
274
     3
340
71
275
     0
280
     0
281
     0
282
     0
283
     0
284
     8
285
     0
286
     0
287
     3
288
     0
  0
ENDTAB
  0
TABLE
  2
BLOCK_RECORD
  5
A01
330
0
100
AcDbSymbolTable
  70
5
  0
BLOCK_RECORD
  5
A02
330
A01
100
AcDbSymbolTableRecord
100
AcDbBlockTableRecord
  2
*MODEL_SPACE
  0
BLOCK_RECORD
  5
A03
330
A01
100
AcDbSymbolTableRecord
100
AcDbBlockTableRecord
  2
*PAPER_SPACE
  0
ENDTAB
  0
ENDSEC
  0
SECTION
  2
BLOCKS
  0
BLOCK
  5
A04
330
A02
100
AcDbEntity
  8
0
100
AcDbBlockBegin
  2
*MODEL_SPACE
 70
   0
 10
0
 20
0
 30
0
  3
*MODEL_SPACE
  1
 
  0
ENDBLK
  5
A05
330
A02
100
AcDbEntity
  8
0
100
AcDbBlockEnd
  0
BLOCK
  5
A06
330
A03
100
AcDbEntity
 67
1
  8
0
100
AcDbBlockBegin
  2
*PAPER_SPACE
 70
   0
 10
0
 20
0
 30
0
  3
*PAPER_SPACE
  1
 
  0
ENDBLK
  5
A07
330
A03
100
AcDbEntity
 67
    1
  8
0
100
AcDbBlockEnd
  0
ENDSEC
  0
SECTION
  2
ENTITIES
  0
LINE
  5
A08
330
A02
100
AcDbEntity
  8
Shape012
100
AcDbLine
 10
98.2343
 20
-57.5927
 30
0
 11
98.2991
 21
-57.359
 31
0
  0
LINE
  5
A09
330
A02
100
AcDbEntity
  8
Shape012
100
AcDbLine
 10
98.2991
 20
-57.359
 30
0
 11
98.4012
 21
-57.139
 31
0
  0
LINE
  5
A0A
330
A02
100
AcDbEntity
  8
Shape012
100
AcDbLine
 10
98.4012
 20
-57.139
 30
0
 11
98.5379
 21
-56.9387
 31
0
  0
LINE
  5
A0B
330
A02
100
AcDbEntity
  8
Shape012
100
AcDbLine
 10
98.5379
 20
-56.9387
 30
0
 11
98.7055
 21
-56.7633
 31
0
  0
LINE
  5
A0C
330
A02
100
AcDbEntity
  8
Shape012
100
AcDbLine
 10
98.7055
 20
-56.7633
 30
0
 11
98.8994
 21
-56.6177
 31
0
  0
LINE
  5
A0D
330
A02
100
AcDbEntity
  8
Shape012
100
AcDbLine
 10
98.8994
 20
-56.6177
 30
0
 11
99.1145
 21
-56.5057
 31
0
  0
LINE
  5
A0E
330
A02
100
AcDbEntity
  8
Shape012
100
AcDbLine
 10
99.1145
 20
-56.5057
 30
0
 11
99.345
 21
-56.4304
 31
0
  0
LINE
  5
A0F
330
A02
100
AcDbEntity
  8
Shape012
100
AcDbLine
 10
99.345
 20
-56.4304
 30
0
 11
99.5848
 21
-56.3937
 31
0
  0
LINE
  5
A10
330
A02
100
AcDbEntity
  8
Shape012
100
AcDbLine
 10
99.5848
 20
-56.3937
 30
0
 11
99.8273
 21
-56.3967
 31
0
  0
LINE
  5
A11
330
A02
100
AcDbEntity
  8
Shape012
100
AcDbLine
 10
99.8273
 20
-56.3967
 30
0
 11
100.066
 21
-56.4392
 31
0
  0
LINE
  5
A12
330
A02
100
AcDbEntity
  8
Shape012
100
AcDbLine
 10
100.066
 20
-56.4392
 30
0
 11
100.295
 21
-56.5202
 31
0
  0
LINE
  5
A13
330
A02
100
AcDbEntity
  8
Shape012
100
AcDbLine
 10
100.295
 20
-56.5202
 30
0
 11
100.507
 21
-56.6374
 31
0
  0
LINE
  5
A14
330
A02
100
AcDbEntity
  8
Shape012
100
AcDbLine
 10
100.507
 20
-56.6374
 30
0
 11
100.697
 21
-56.7877
 31
0
  0
LINE
  5
A15
330
A02
100
AcDbEntity
  8
Shape012
100
AcDbLine
 10
100.697
 20
-56.7877
 30
0
 11
100.861
 21
-56.967
 31
0
  0
LINE
  5
A16
330
A02
100
AcDbEntity
  8
Shape012
100
AcDbLine
 10
100.861
 20
-56.967
 30
0
 11
100.992
 21
-57.1707
 31
0
  0
LINE
  5
A17
330
A02
100
AcDbEntity
  8
Shape012
100
AcDbLine
 10
100.992
 20
-57.1707
 30
0
 11
101.089
 21
-57.3931
 31
0
  0
LINE
  5
A18
330
A02
100
AcDbEntity
  8
Shape012
100
AcDbLine
 10
101.089
 20
-57.3931
 30
0
 11
101.148
 21
-57.6283
 31
0
  0
LINE
  5
A19
330
A02
100
AcDbEntity
  8
Shape012
100
AcDbLine
 10
101.148
 20
-57.6283
 30
0
 11
101.168
 21
-57.87
 31
0
  0
LINE
  5
A1A
330
A02
100
AcDbEntity
  8
Shape012
100
AcDbLine
 10
101.168
 20
-57.87
 30
0
 11
101.166
 21
-57.9423
 31
0
  0
LINE
  5
A1B
330
A02
100
AcDbEntity
  8
Shape012
100
AcDbLine
 10
101.166
 20
-57.9423
 30
0
 11
101.134
 21
-58.1827
 31
0
  0
LINE
  5
A1C
330
A02
100
AcDbEntity
  8
Shape012
100
AcDbLine
 10
101.134
 20
-58.1827
 30
0
 11
101.064
 21
-58.4148
 31
0
  0
LINE
  5
A1D
330
A02
100
AcDbEntity
  8
Shape012
100
AcDbLine
 10
101.064
 20
-58.4148
 30
0
 11
100.957
 21
-58.6322
 31
0
  0
LINE
  5
A1E
330
A02
100
AcDbEntity
  8
Shape012
100
AcDbLine
 10
100.957
 20
-58.6322
 30
0
 11
100.815
 21
-58.8292
 31
0
  0
LINE
  5
A1F
330
A02
100
AcDbEntity
  8
Shape012
100
AcDbLine
 10
100.815
 20
-58.8292
 30
0
 11
100.643
 21
-59.0003
 31
0
  0
LINE
  5
A20
330
A02
100
AcDbEntity
  8
Shape012
100
AcDbLine
 10
100.643
 20
-59.0003
 30
0
 11
100.446
 21
-59.1412
 31
0
  0
LINE
  5
A21
330
A02
100
AcDbEntity
  8
Shape012
100
AcDbLine
 10
100.446
 20
-59.1412
 30
0
 11
100.228
 21
-59.2479
 31
0
  0
LINE
  5
A22
330
A02
100
AcDbEntity
  8
Shape012
100
AcDbLine
 10
100.228
 20
-59.2479
 30
0
 11
99.9957
 21
-59.3176
 31
0
  0
LINE
  5
A23
330
A02
100
AcDbEntity
  8
Shape012
100
AcDbLine
 10
99.9957
 20
-59.3176
 30
0
 11
99.7551
 21
-59.3484
 31
0
  0
LINE
  5
A24
330
A02
100
AcDbEntity
  8
Shape012
100
AcDbLine
 10
99.7551
 20
-59.3484
 30
0
 11
99.5128
 21
-59.3395
 31
0
  0
LINE
  5
A25
330
A02
100
AcDbEntity
  8
Shape012
100
AcDbLine
 10
99.5128
 20
-59.3395
 30
0
 11
99.2751
 21
-59.2911
 31
0
  0
LINE
  5
A26
330
A02
100
AcDbEntity
  8
Shape012
100
AcDbLine
 10
99.2751
 20
-59.2911
 30
0
 11
99.0486
 21
-59.2046
 31
0
  0
LINE
  5
A27
330
A02
100
AcDbEntity
  8
Shape012
100
AcDbLine
 10
99.0486
 20
-59.2046
 30
0
 11
98.8392
 21
-59.0823
 31
0
  0
LINE
  5
A28
330
A02
100
AcDbEntity
  8
Shape012
100
AcDbLine
 10
98.8392
 20
-59.0823
 30
0
 11
98.6526
 21
-58.9273
 31
0
  0
LINE
  5
A29
330
A02
100
AcDbEntity
  8
Shape012
100
AcDbLine
 10
98.6526
 20
-58.9273
 30
0
 11
98.4938
 21
-58.744
 31
0
  0
LINE
  5
A2A
330
A02
100
AcDbEntity
  8
Shape012
100
AcDbLine
 10
98.4938
 20
-58.744
 30
0
 11
98.3671
 21
-58.5373
 31
0
  0
LINE
  5
A2B
330
A02
100
AcDbEntity
  8
Shape012
100
AcDbLine
 10
98.3671
 20
-58.5373
 30
0
 11
98.2758
 21
-58.3126
 31
0
  0
LINE
  5
A2C
330
A02
100
AcDbEntity
  8
Shape012
100
AcDbLine
 10
98.2758
 20
-58.3126
 30
0
 11
98.2225
 21
-58.076
 31
0
  0
LINE
  5
A2D
330
A02
100
AcDbEntity
  8
Shape012
100
AcDbLine
 10
98.2225
 20
-58.076
 30
0
 11
98.2087
 21
-57.8367
 31
0
  0
LINE
  5
A2E
330
A02
100
AcDbEntity
  8
Shape012
100
AcDbLine
 10
98.2087
 20
-57.8367
 30
0
 11
98.2085
 21
-57.8338
 31
0
  0
LINE
  5
A2F
330
A02
100
AcDbEntity
  8
Shape012
100
AcDbLine
 10
98.2085
 20
-57.8338
 30
0
 11
98.2343
 21
-57.5927
 31
0
  0
LINE
  5
A30
330
A02
100
AcDbEntity
  8
Shape010
100
AcDbLine
 10
173.134
 20
-57.5927
 30
0
 11
173.199
 21
-57.359
 31
0
  0
LINE
  5
A31
330
A02
100
AcDbEntity
  8
Shape010
100
AcDbLine
 10
173.199
 20
-57.359
 30
0
 11
173.301
 21
-57.139
 31
0
  0
LINE
  5
A32
330
A02
100
AcDbEntity
  8
Shape010
100
AcDbLine
 10
173.301
 20
-57.139
 30
0
 11
173.438
 21
-56.9387
 31
0
  0
LINE
  5
A33
330
A02
100
AcDbEntity
  8
Shape010
100
AcDbLine
 10
173.438
 20
-56.9387
 30
0
 11
173.605
 21
-56.7633
 31
0
  0
LINE
  5
A34
330
A02
100
AcDbEntity
  8
Shape010
100
AcDbLine
 10
173.605
 20
-56.7633
 30
0
 11
173.799
 21
-56.6177
 31
0
  0
LINE
  5
A35
330
A02
100
AcDbEntity
  8
Shape010
100
AcDbLine
 10
173.799
 20
-56.6177
 30
0
 11
174.015
 21
-56.5057
 31
0
  0
LINE
  5
A36
330
A02
100
AcDbEntity
  8
Shape010
100
AcDbLine
 10
174.015
 20
-56.5057
 30
0
 11
174.245
 21
-56.4304
 31
0
  0
LINE
  5
A37
330
A02
100
AcDbEntity
  8
Shape010
100
AcDbLine
 10
174.245
 20
-56.4304
 30
0
 11
174.485
 21
-56.3937
 31
0
  0
LINE
  5
A38
330
A02
100
AcDbEntity
  8
Shape010
100
AcDbLine
 10
174.485
 20
-56.3937
 30
0
 11
174.727
 21
-56.3967
 31
0
  0
LINE
  5
A39
330
A02
100
AcDbEntity
  8
Shape010
100
AcDbLine
 10
174.727
 20
-56.3967
 30
0
 11
174.966
 21
-56.4392
 31
0
  0
LINE
  5
A3A
330
A02
100
AcDbEntity
  8
Shape010
100
AcDbLine
 10
174.966
 20
-56.4392
 30
0
 11
175.195
 21
-56.5202
 31
0
  0
LINE
  5
A3B
330
A02
100
AcDbEntity
  8
Shape010
100
AcDbLine
 10
175.195
 20
-56.5202
 30
0
 11
175.407
 21
-56.6374
 31
0
  0
LINE
  5
A3C
330
A02
100
AcDbEntity
  8
Shape010
100
AcDbLine
 10
175.407
 20
-56.6374
 30
0
 11
175.597
 21
-56.7877
 31
0
  0
LINE
  5
A3D
330
A02
100
AcDbEntity
  8
Shape010
100
AcDbLine
 10
175.597
 20
-56.7877
 30
0
 11
175.761
 21
-56.967
 31
0
  0
LINE
  5
A3E
330
A02
100
AcDbEntity
  8
Shape010
100
AcDbLine
 10
175.761
 20
-56.967
 30
0
 11
175.892
 21
-57.1707
 31
0
  0
LINE
  5
A3F
330
A02
100
AcDbEntity
  8
Shape010
100
AcDbLine
 10
175.892
 20
-57.1707
 30
0
 11
175.989
 21
-57.3931
 31
0
  0
LINE
  5
A40
330
A02
100
AcDbEntity
  8
Shape010
100
AcDbLine
 10
175.989
 20
-57.3931
 30
0
 11
176.048
 21
-57.6283
 31
0
  0
LINE
  5
A41
330
A02
100
AcDbEntity
  8
Shape010
100
AcDbLine
 10
176.048
 20
-57.6283
 30
0
 11
176.068
 21
-57.87
 31
0
  0
LINE
  5
A42
330
A02
100
AcDbEntity
  8
Shape010
100
AcDbLine
 10
176.068
 20
-57.87
 30
0
 11
176.066
 21
-57.9423
 31
0
  0
LINE
  5
A43
330
A02
100
AcDbEntity
  8
Shape010
100
AcDbLine
 10
176.066
 20
-57.9423
 30
0
 11
176.034
 21
-58.1827
 31
0
  0
LINE
  5
A44
330
A02
100
AcDbEntity
  8
Shape010
100
AcDbLine
 10
176.034
 20
-58.1827
 30
0
 11
175.964
 21
-58.4148
 31
0
  0
LINE
  5
A45
330
A02
100
AcDbEntity
  8
Shape010
100
AcDbLine
 10
175.964
 20
-58.4148
 30
0
 11
175.857
 21
-58.6322
 31
0
  0
LINE
  5
A46
330
A02
100
AcDbEntity
  8
Shape010
100
AcDbLine
 10
175.857
 20
-58.6322
 30
0
 11
175.715
 21
-58.8292
 31
0
  0
LINE
  5
A47
330
A02
100
AcDbEntity
  8
Shape010
100
AcDbLine
 10
175.715
 20
-58.8292
 30
0
 11
175.543
 21
-59.0003
 31
0
  0
LINE
  5
A48
330
A02
100
AcDbEntity
  8
Shape010
100
AcDbLine
 10
175.543
 20
-59.0003
 30
0
 11
175.346
 21
-59.1412
 31
0
  0
LINE
  5
A49
330
A02
100
AcDbEntity
  8
Shape010
100
AcDbLine
 10
175.346
 20
-59.1412
 30
0
 11
175.128
 21
-59.2479
 31
0
  0
LINE
  5
A4A
330
A02
100
AcDbEntity
  8
Shape010
100
AcDbLine
 10
175.128
 20
-59.2479
 30
0
 11
174.896
 21
-59.3176
 31
0
  0
LINE
  5
A4B
330
A02
100
AcDbEntity
  8
Shape010
100
AcDbLine
 10
174.896
 20
-59.3176
 30
0
 11
174.655
 21
-59.3484
 31
0
  0
LINE
  5
A4C
330
A02
100
AcDbEntity
  8
Shape010
100
AcDbLine
 10
174.655
 20
-59.3484
 30
0
 11
174.413
 21
-59.3395
 31
0
  0
LINE
  5
A4D
330
A02
100
AcDbEntity
  8
Shape010
100
AcDbLine
 10
174.413
 20
-59.3395
 30
0
 11
174.175
 21
-59.2911
 31
0
  0
LINE
  5
A4E
330
A02
100
AcDbEntity
  8
Shape010
100
AcDbLine
 10
174.175
 20
-59.2911
 30
0
 11
173.949
 21
-59.2046
 31
0
  0
LINE
  5
A4F
330
A02
100
AcDbEntity
  8
Shape010
100
AcDbLine
 10
173.949
 20
-59.2046
 30
0
 11
173.739
 21
-59.0823
 31
0
  0
LINE
  5
A50
330
A02
100
AcDbEntity
  8
Shape010
100
AcDbLine
 10
173.739
 20
-59.0823
 30
0
 11
173.553
 21
-58.9273
 31
0
  0
LINE
  5
A51
330
A02
100
AcDbEntity
  8
Shape010
100
AcDbLine
 10
173.553
 20
-58.9273
 30
0
 11
173.394
 21
-58.744
 31
0
  0
LINE
  5
A52
330
A02
100
AcDbEntity
  8
Shape010
100
AcDbLine
 10
173.394
 20
-58.744
 30
0
 11
173.267
 21
-58.5373
 31
0
  0
LINE
  5
A53
330
A02
100
AcDbEntity
  8
Shape010
100
AcDbLine
 10
173.267
 20
-58.5373
 30
0
 11
173.176
 21
-58.3126
 31
0
  0
LINE
  5
A54
330
A02
100
AcDbEntity
  8
Shape010
100
AcDbLine
 10
173.176
 20
-58.3126
 30
0
 11
173.122
 21
-58.076
 31
0
  0
LINE
  5
A55
330
A02
100
AcDbEntity
  8
Shape010
100
AcDbLine
 10
173.122
 20
-58.076
 30
0
 11
173.109
 21
-57.8367
 31
0
  0
LINE
  5
A56
330
A02
100
AcDbEntity
  8
Shape010
100
AcDbLine
 10
173.109
 20
-57.8367
 30
0
 11
173.109
 21
-57.8338
 31
0
  0
LINE
  5
A57
330
A02
100
AcDbEntity
  8
Shape010
100
AcDbLine
 10
173.109
 20
-57.8338
 30
0
 11
173.134
 21
-57.5927
 31
0
  0
LINE
  5
A58
330
A02
100
AcDbEntity
  8
Shape008
100
AcDbLine
 10
148.898
 20
-72.8907
 30
0
 11
148.963
 21
-72.657
 31
0
  0
LINE
  5
A59
330
A02
100
AcDbEntity
  8
Shape008
100
AcDbLine
 10
148.963
 20
-72.657
 30
0
 11
149.065
 21
-72.437
 31
0
  0
LINE
  5
A5A
330
A02
100
AcDbEntity
  8
Shape008
100
AcDbLine
 10
149.065
 20
-72.437
 30
0
 11
149.202
 21
-72.2367
 31
0
  0
LINE
  5
A5B
330
A02
100
AcDbEntity
  8
Shape008
100
AcDbLine
 10
149.202
 20
-72.2367
 30
0
 11
149.37
 21
-72.0613
 31
0
  0
LINE
  5
A5C
330
A02
100
AcDbEntity
  8
Shape008
100
AcDbLine
 10
149.37
 20
-72.0613
 30
0
 11
149.563
 21
-71.9157
 31
0
  0
LINE
  5
A5D
330
A02
100
AcDbEntity
  8
Shape008
100
AcDbLine
 10
149.563
 20
-71.9157
 30
0
 11
149.779
 21
-71.8037
 31
0
  0
LINE
  5
A5E
330
A02
100
AcDbEntity
  8
Shape008
100
AcDbLine
 10
149.779
 20
-71.8037
 30
0
 11
150.009
 21
-71.7284
 31
0
  0
LINE
  5
A5F
330
A02
100
AcDbEntity
  8
Shape008
100
AcDbLine
 10
150.009
 20
-71.7284
 30
0
 11
150.249
 21
-71.6917
 31
0
  0
LINE
  5
A60
330
A02
100
AcDbEntity
  8
Shape008
100
AcDbLine
 10
150.249
 20
-71.6917
 30
0
 11
150.491
 21
-71.6947
 31
0
  0
LINE
  5
A61
330
A02
100
AcDbEntity
  8
Shape008
100
AcDbLine
 10
150.491
 20
-71.6947
 30
0
 11
150.73
 21
-71.7372
 31
0
  0
LINE
  5
A62
330
A02
100
AcDbEntity
  8
Shape008
100
AcDbLine
 10
150.73
 20
-71.7372
 30
0
 11
150.959
 21
-71.8182
 31
0
  0
LINE
  5
A63
330
A02
100
AcDbEntity
  8
Shape008
100
AcDbLine
 10
150.959
 20
-71.8182
 30
0
 11
151.171
 21
-71.9354
 31
0
  0
LINE
  5
A64
330
A02
100
AcDbEntity
  8
Shape008
100
AcDbLine
 10
151.171
 20
-71.9354
 30
0
 11
151.361
 21
-72.0857
 31
0
  0
LINE
  5
A65
330
A02
100
AcDbEntity
  8
Shape008
100
AcDbLine
 10
151.361
 20
-72.0857
 30
0
 11
151.525
 21
-72.265
 31
0
  0
LINE
  5
A66
330
A02
100
AcDbEntity
  8
Shape008
100
AcDbLine
 10
151.525
 20
-72.265
 30
0
 11
151.656
 21
-72.4687
 31
0
  0
LINE
  5
A67
330
A02
100
AcDbEntity
  8
Shape008
100
AcDbLine
 10
151.656
 20
-72.4687
 30
0
 11
151.753
 21
-72.6911
 31
0
  0
LINE
  5
A68
330
A02
100
AcDbEntity
  8
Shape008
100
AcDbLine
 10
151.753
 20
-72.6911
 30
0
 11
151.812
 21
-72.9263
 31
0
  0
LINE
  5
A69
330
A02
100
AcDbEntity
  8
Shape008
100
AcDbLine
 10
151.812
 20
-72.9263
 30
0
 11
151.832
 21
-73.168
 31
0
  0
LINE
  5
A6A
330
A02
100
AcDbEntity
  8
Shape008
100
AcDbLine
 10
151.832
 20
-73.168
 30
0
 11
151.83
 21
-73.2403
 31
0
  0
LINE
  5
A6B
330
A02
100
AcDbEntity
  8
Shape008
100
AcDbLine
 10
151.83
 20
-73.2403
 30
0
 11
151.799
 21
-73.4807
 31
0
  0
LINE
  5
A6C
330
A02
100
AcDbEntity
  8
Shape008
100
AcDbLine
 10
151.799
 20
-73.4807
 30
0
 11
151.728
 21
-73.7128
 31
0
  0
LINE
  5
A6D
330
A02
100
AcDbEntity
  8
Shape008
100
AcDbLine
 10
151.728
 20
-73.7128
 30
0
 11
151.621
 21
-73.9302
 31
0
  0
LINE
  5
A6E
330
A02
100
AcDbEntity
  8
Shape008
100
AcDbLine
 10
151.621
 20
-73.9302
 30
0
 11
151.479
 21
-74.1272
 31
0
  0
LINE
  5
A6F
330
A02
100
AcDbEntity
  8
Shape008
100
AcDbLine
 10
151.479
 20
-74.1272
 30
0
 11
151.307
 21
-74.2983
 31
0
  0
LINE
  5
A70
330
A02
100
AcDbEntity
  8
Shape008
100
AcDbLine
 10
151.307
 20
-74.2983
 30
0
 11
151.11
 21
-74.4392
 31
0
  0
LINE
  5
A71
330
A02
100
AcDbEntity
  8
Shape008
100
AcDbLine
 10
151.11
 20
-74.4392
 30
0
 11
150.892
 21
-74.5459
 31
0
  0
LINE
  5
A72
330
A02
100
AcDbEntity
  8
Shape008
100
AcDbLine
 10
150.892
 20
-74.5459
 30
0
 11
150.66
 21
-74.6156
 31
0
  0
LINE
  5
A73
330
A02
100
AcDbEntity
  8
Shape008
100
AcDbLine
 10
150.66
 20
-74.6156
 30
0
 11
150.419
 21
-74.6464
 31
0
  0
LINE
  5
A74
330
A02
100
AcDbEntity
  8
Shape008
100
AcDbLine
 10
150.419
 20
-74.6464
 30
0
 11
150.177
 21
-74.6375
 31
0
  0
LINE
  5
A75
330
A02
100
AcDbEntity
  8
Shape008
100
AcDbLine
 10
150.177
 20
-74.6375
 30
0
 11
149.939
 21
-74.5891
 31
0
  0
LINE
  5
A76
330
A02
100
AcDbEntity
  8
Shape008
100
AcDbLine
 10
149.939
 20
-74.5891
 30
0
 11
149.713
 21
-74.5026
 31
0
  0
LINE
  5
A77
330
A02
100
AcDbEntity
  8
Shape008
100
AcDbLine
 10
149.713
 20
-74.5026
 30
0
 11
149.503
 21
-74.3803
 31
0
  0
LINE
  5
A78
330
A02
100
AcDbEntity
  8
Shape008
100
AcDbLine
 10
149.503
 20
-74.3803
 30
0
 11
149.317
 21
-74.2253
 31
0
  0
LINE
  5
A79
330
A02
100
AcDbEntity
  8
Shape008
100
AcDbLine
 10
149.317
 20
-74.2253
 30
0
 11
149.158
 21
-74.042
 31
0
  0
LINE
  5
A7A
330
A02
100
AcDbEntity
  8
Shape008
100
AcDbLine
 10
149.158
 20
-74.042
 30
0
 11
149.031
 21
-73.8353
 31
0
  0
LINE
  5
A7B
330
A02
100
AcDbEntity
  8
Shape008
100
AcDbLine
 10
149.031
 20
-73.8353
 30
0
 11
148.94
 21
-73.6106
 31
0
  0
LINE
  5
A7C
330
A02
100
AcDbEntity
  8
Shape008
100
AcDbLine
 10
148.94
 20
-73.6106
 30
0
 11
148.887
 21
-73.374
 31
0
  0
LINE
  5
A7D
330
A02
100
AcDbEntity
  8
Shape008
100
AcDbLine
 10
148.887
 20
-73.374
 30
0
 11
148.873
 21
-73.1347
 31
0
  0
LINE
  5
A7E
330
A02
100
AcDbEntity
  8
Shape008
100
AcDbLine
 10
148.873
 20
-73.1347
 30
0
 11
148.873
 21
-73.1318
 31
0
  0
LINE
  5
A7F
330
A02
100
AcDbEntity
  8
Shape008
100
AcDbLine
 10
148.873
 20
-73.1318
 30
0
 11
148.898
 21
-72.8907
 31
0
  0
LINE
  5
A80
330
A02
100
AcDbEntity
  8
Shape006
100
AcDbLine
 10
148.771
 20
-100.831
 30
0
 11
148.836
 21
-100.597
 31
0
  0
LINE
  5
A81
330
A02
100
AcDbEntity
  8
Shape006
100
AcDbLine
 10
148.836
 20
-100.597
 30
0
 11
148.938
 21
-100.377
 31
0
  0
LINE
  5
A82
330
A02
100
AcDbEntity
  8
Shape006
100
AcDbLine
 10
148.938
 20
-100.377
 30
0
 11
149.075
 21
-100.177
 31
0
  0
LINE
  5
A83
330
A02
100
AcDbEntity
  8
Shape006
100
AcDbLine
 10
149.075
 20
-100.177
 30
0
 11
149.243
 21
-100.001
 31
0
  0
LINE
  5
A84
330
A02
100
AcDbEntity
  8
Shape006
100
AcDbLine
 10
149.243
 20
-100.001
 30
0
 11
149.436
 21
-99.8557
 31
0
  0
LINE
  5
A85
330
A02
100
AcDbEntity
  8
Shape006
100
AcDbLine
 10
149.436
 20
-99.8557
 30
0
 11
149.652
 21
-99.7437
 31
0
  0
LINE
  5
A86
330
A02
100
AcDbEntity
  8
Shape006
100
AcDbLine
 10
149.652
 20
-99.7437
 30
0
 11
149.882
 21
-99.6684
 31
0
  0
LINE
  5
A87
330
A02
100
AcDbEntity
  8
Shape006
100
AcDbLine
 10
149.882
 20
-99.6684
 30
0
 11
150.122
 21
-99.6317
 31
0
  0
LINE
  5
A88
330
A02
100
AcDbEntity
  8
Shape006
100
AcDbLine
 10
150.122
 20
-99.6317
 30
0
 11
150.364
 21
-99.6347
 31
0
  0
LINE
  5
A89
330
A02
100
AcDbEntity
  8
Shape006
100
AcDbLine
 10
150.364
 20
-99.6347
 30
0
 11
150.603
 21
-99.6772
 31
0
  0
LINE
  5
A8A
330
A02
100
AcDbEntity
  8
Shape006
100
AcDbLine
 10
150.603
 20
-99.6772
 30
0
 11
150.832
 21
-99.7582
 31
0
  0
LINE
  5
A8B
330
A02
100
AcDbEntity
  8
Shape006
100
AcDbLine
 10
150.832
 20
-99.7582
 30
0
 11
151.044
 21
-99.8754
 31
0
  0
LINE
  5
A8C
330
A02
100
AcDbEntity
  8
Shape006
100
AcDbLine
 10
151.044
 20
-99.8754
 30
0
 11
151.234
 21
-100.026
 31
0
  0
LINE
  5
A8D
330
A02
100
AcDbEntity
  8
Shape006
100
AcDbLine
 10
151.234
 20
-100.026
 30
0
 11
151.398
 21
-100.205
 31
0
  0
LINE
  5
A8E
330
A02
100
AcDbEntity
  8
Shape006
100
AcDbLine
 10
151.398
 20
-100.205
 30
0
 11
151.529
 21
-100.409
 31
0
  0
LINE
  5
A8F
330
A02
100
AcDbEntity
  8
Shape006
100
AcDbLine
 10
151.529
 20
-100.409
 30
0
 11
151.626
 21
-100.631
 31
0
  0
LINE
  5
A90
330
A02
100
AcDbEntity
  8
Shape006
100
AcDbLine
 10
151.626
 20
-100.631
 30
0
 11
151.685
 21
-100.866
 31
0
  0
LINE
  5
A91
330
A02
100
AcDbEntity
  8
Shape006
100
AcDbLine
 10
151.685
 20
-100.866
 30
0
 11
151.705
 21
-101.108
 31
0
  0
LINE
  5
A92
330
A02
100
AcDbEntity
  8
Shape006
100
AcDbLine
 10
151.705
 20
-101.108
 30
0
 11
151.703
 21
-101.18
 31
0
  0
LINE
  5
A93
330
A02
100
AcDbEntity
  8
Shape006
100
AcDbLine
 10
151.703
 20
-101.18
 30
0
 11
151.672
 21
-101.421
 31
0
  0
LINE
  5
A94
330
A02
100
AcDbEntity
  8
Shape006
100
AcDbLine
 10
151.672
 20
-101.421
 30
0
 11
151.601
 21
-101.653
 31
0
  0
LINE
  5
A95
330
A02
100
AcDbEntity
  8
Shape006
100
AcDbLine
 10
151.601
 20
-101.653
 30
0
 11
151.494
 21
-101.87
 31
0
  0
LINE
  5
A96
330
A02
100
AcDbEntity
  8
Shape006
100
AcDbLine
 10
151.494
 20
-101.87
 30
0
 11
151.352
 21
-102.067
 31
0
  0
LINE
  5
A97
330
A02
100
AcDbEntity
  8
Shape006
100
AcDbLine
 10
151.352
 20
-102.067
 30
0
 11
151.18
 21
-102.238
 31
0
  0
LINE
  5
A98
330
A02
100
AcDbEntity
  8
Shape006
100
AcDbLine
 10
151.18
 20
-102.238
 30
0
 11
150.983
 21
-102.379
 31
0
  0
LINE
  5
A99
330
A02
100
AcDbEntity
  8
Shape006
100
AcDbLine
 10
150.983
 20
-102.379
 30
0
 11
150.765
 21
-102.486
 31
0
  0
LINE
  5
A9A
330
A02
100
AcDbEntity
  8
Shape006
100
AcDbLine
 10
150.765
 20
-102.486
 30
0
 11
150.533
 21
-102.556
 31
0
  0
LINE
  5
A9B
330
A02
100
AcDbEntity
  8
Shape006
100
AcDbLine
 10
150.533
 20
-102.556
 30
0
 11
150.292
 21
-102.586
 31
0
  0
LINE
  5
A9C
330
A02
100
AcDbEntity
  8
Shape006
100
AcDbLine
 10
150.292
 20
-102.586
 30
0
 11
150.05
 21
-102.577
 31
0
  0
LINE
  5
A9D
330
A02
100
AcDbEntity
  8
Shape006
100
AcDbLine
 10
150.05
 20
-102.577
 30
0
 11
149.812
 21
-102.529
 31
0
  0
LINE
  5
A9E
330
A02
100
AcDbEntity
  8
Shape006
100
AcDbLine
 10
149.812
 20
-102.529
 30
0
 11
149.586
 21
-102.443
 31
0
  0
LINE
  5
A9F
330
A02
100
AcDbEntity
  8
Shape006
100
AcDbLine
 10
149.586
 20
-102.443
 30
0
 11
149.376
 21
-102.32
 31
0
  0
LINE
  5
AA0
330
A02
100
AcDbEntity
  8
Shape006
100
AcDbLine
 10
149.376
 20
-102.32
 30
0
 11
149.19
 21
-102.165
 31
0
  0
LINE
  5
AA1
330
A02
100
AcDbEntity
  8
Shape006
100
AcDbLine
 10
149.19
 20
-102.165
 30
0
 11
149.031
 21
-101.982
 31
0
  0
LINE
  5
AA2
330
A02
100
AcDbEntity
  8
Shape006
100
AcDbLine
 10
149.031
 20
-101.982
 30
0
 11
148.904
 21
-101.775
 31
0
  0
LINE
  5
AA3
330
A02
100
AcDbEntity
  8
Shape006
100
AcDbLine
 10
148.904
 20
-101.775
 30
0
 11
148.813
 21
-101.551
 31
0
  0
LINE
  5
AA4
330
A02
100
AcDbEntity
  8
Shape006
100
AcDbLine
 10
148.813
 20
-101.551
 30
0
 11
148.76
 21
-101.314
 31
0
  0
LINE
  5
AA5
330
A02
100
AcDbEntity
  8
Shape006
100
AcDbLine
 10
148.76
 20
-101.314
 30
0
 11
148.746
 21
-101.075
 31
0
  0
LINE
  5
AA6
330
A02
100
AcDbEntity
  8
Shape006
100
AcDbLine
 10
148.746
 20
-101.075
 30
0
 11
148.746
 21
-101.072
 31
0
  0
LINE
  5
AA7
330
A02
100
AcDbEntity
  8
Shape006
100
AcDbLine
 10
148.746
 20
-101.072
 30
0
 11
148.771
 21
-100.831
 31
0
  0
LINE
  5
AA8
330
A02
100
AcDbEntity
  8
Shape004
100
AcDbLine
 10
179.505
 20
-105.784
 30
0
 11
179.57
 21
-105.55
 31
0
  0
LINE
  5
AA9
330
A02
100
AcDbEntity
  8
Shape004
100
AcDbLine
 10
179.57
 20
-105.55
 30
0
 11
179.672
 21
-105.33
 31
0
  0
LINE
  5
AAA
330
A02
100
AcDbEntity
  8
Shape004
100
AcDbLine
 10
179.672
 20
-105.33
 30
0
 11
179.809
 21
-105.13
 31
0
  0
LINE
  5
AAB
330
A02
100
AcDbEntity
  8
Shape004
100
AcDbLine
 10
179.809
 20
-105.13
 30
0
 11
179.977
 21
-104.954
 31
0
  0
LINE
  5
AAC
330
A02
100
AcDbEntity
  8
Shape004
100
AcDbLine
 10
179.977
 20
-104.954
 30
0
 11
180.17
 21
-104.809
 31
0
  0
LINE
  5
AAD
330
A02
100
AcDbEntity
  8
Shape004
100
AcDbLine
 10
180.17
 20
-104.809
 30
0
 11
180.386
 21
-104.697
 31
0
  0
LINE
  5
AAE
330
A02
100
AcDbEntity
  8
Shape004
100
AcDbLine
 10
180.386
 20
-104.697
 30
0
 11
180.616
 21
-104.621
 31
0
  0
LINE
  5
AAF
330
A02
100
AcDbEntity
  8
Shape004
100
AcDbLine
 10
180.616
 20
-104.621
 30
0
 11
180.856
 21
-104.585
 31
0
  0
LINE
  5
AB0
330
A02
100
AcDbEntity
  8
Shape004
100
AcDbLine
 10
180.856
 20
-104.585
 30
0
 11
181.098
 21
-104.588
 31
0
  0
LINE
  5
AB1
330
A02
100
AcDbEntity
  8
Shape004
100
AcDbLine
 10
181.098
 20
-104.588
 30
0
 11
181.337
 21
-104.63
 31
0
  0
LINE
  5
AB2
330
A02
100
AcDbEntity
  8
Shape004
100
AcDbLine
 10
181.337
 20
-104.63
 30
0
 11
181.566
 21
-104.711
 31
0
  0
LINE
  5
AB3
330
A02
100
AcDbEntity
  8
Shape004
100
AcDbLine
 10
181.566
 20
-104.711
 30
0
 11
181.778
 21
-104.828
 31
0
  0
LINE
  5
AB4
330
A02
100
AcDbEntity
  8
Shape004
100
AcDbLine
 10
181.778
 20
-104.828
 30
0
 11
181.968
 21
-104.979
 31
0
  0
LINE
  5
AB5
330
A02
100
AcDbEntity
  8
Shape004
100
AcDbLine
 10
181.968
 20
-104.979
 30
0
 11
182.132
 21
-105.158
 31
0
  0
LINE
  5
AB6
330
A02
100
AcDbEntity
  8
Shape004
100
AcDbLine
 10
182.132
 20
-105.158
 30
0
 11
182.263
 21
-105.362
 31
0
  0
LINE
  5
AB7
330
A02
100
AcDbEntity
  8
Shape004
100
AcDbLine
 10
182.263
 20
-105.362
 30
0
 11
182.36
 21
-105.584
 31
0
  0
LINE
  5
AB8
330
A02
100
AcDbEntity
  8
Shape004
100
AcDbLine
 10
182.36
 20
-105.584
 30
0
 11
182.419
 21
-105.819
 31
0
  0
LINE
  5
AB9
330
A02
100
AcDbEntity
  8
Shape004
100
AcDbLine
 10
182.419
 20
-105.819
 30
0
 11
182.439
 21
-106.061
 31
0
  0
LINE
  5
ABA
330
A02
100
AcDbEntity
  8
Shape004
100
AcDbLine
 10
182.439
 20
-106.061
 30
0
 11
182.437
 21
-106.133
 31
0
  0
LINE
  5
ABB
330
A02
100
AcDbEntity
  8
Shape004
100
AcDbLine
 10
182.437
 20
-106.133
 30
0
 11
182.406
 21
-106.374
 31
0
  0
LINE
  5
ABC
330
A02
100
AcDbEntity
  8
Shape004
100
AcDbLine
 10
182.406
 20
-106.374
 30
0
 11
182.335
 21
-106.606
 31
0
  0
LINE
  5
ABD
330
A02
100
AcDbEntity
  8
Shape004
100
AcDbLine
 10
182.335
 20
-106.606
 30
0
 11
182.228
 21
-106.823
 31
0
  0
LINE
  5
ABE
330
A02
100
AcDbEntity
  8
Shape004
100
AcDbLine
 10
182.228
 20
-106.823
 30
0
 11
182.086
 21
-107.02
 31
0
  0
LINE
  5
ABF
330
A02
100
AcDbEntity
  8
Shape004
100
AcDbLine
 10
182.086
 20
-107.02
 30
0
 11
181.914
 21
-107.191
 31
0
  0
LINE
  5
AC0
330
A02
100
AcDbEntity
  8
Shape004
100
AcDbLine
 10
181.914
 20
-107.191
 30
0
 11
181.717
 21
-107.332
 31
0
  0
LINE
  5
AC1
330
A02
100
AcDbEntity
  8
Shape004
100
AcDbLine
 10
181.717
 20
-107.332
 30
0
 11
181.499
 21
-107.439
 31
0
  0
LINE
  5
AC2
330
A02
100
AcDbEntity
  8
Shape004
100
AcDbLine
 10
181.499
 20
-107.439
 30
0
 11
181.267
 21
-107.509
 31
0
  0
LINE
  5
AC3
330
A02
100
AcDbEntity
  8
Shape004
100
AcDbLine
 10
181.267
 20
-107.509
 30
0
 11
181.026
 21
-107.539
 31
0
  0
LINE
  5
AC4
330
A02
100
AcDbEntity
  8
Shape004
100
AcDbLine
 10
181.026
 20
-107.539
 30
0
 11
180.784
 21
-107.53
 31
0
  0
LINE
  5
AC5
330
A02
100
AcDbEntity
  8
Shape004
100
AcDbLine
 10
180.784
 20
-107.53
 30
0
 11
180.546
 21
-107.482
 31
0
  0
LINE
  5
AC6
330
A02
100
AcDbEntity
  8
Shape004
100
AcDbLine
 10
180.546
 20
-107.482
 30
0
 11
180.32
 21
-107.396
 31
0
  0
LINE
  5
AC7
330
A02
100
AcDbEntity
  8
Shape004
100
AcDbLine
 10
180.32
 20
-107.396
 30
0
 11
180.11
 21
-107.273
 31
0
  0
LINE
  5
AC8
330
A02
100
AcDbEntity
  8
Shape004
100
AcDbLine
 10
180.11
 20
-107.273
 30
0
 11
179.924
 21
-107.118
 31
0
  0
LINE
  5
AC9
330
A02
100
AcDbEntity
  8
Shape004
100
AcDbLine
 10
179.924
 20
-107.118
 30
0
 11
179.765
 21
-106.935
 31
0
  0
LINE
  5
ACA
330
A02
100
AcDbEntity
  8
Shape004
100
AcDbLine
 10
179.765
 20
-106.935
 30
0
 11
179.638
 21
-106.728
 31
0
  0
LINE
  5
ACB
330
A02
100
AcDbEntity
  8
Shape004
100
AcDbLine
 10
179.638
 20
-106.728
 30
0
 11
179.547
 21
-106.504
 31
0
  0
LINE
  5
ACC
330
A02
100
AcDbEntity
  8
Shape004
100
AcDbLine
 10
179.547
 20
-106.504
 30
0
 11
179.494
 21
-106.267
 31
0
  0
LINE
  5
ACD
330
A02
100
AcDbEntity
  8
Shape004
100
AcDbLine
 10
179.494
 20
-106.267
 30
0
 11
179.48
 21
-106.028
 31
0
  0
LINE
  5
ACE
330
A02
100
AcDbEntity
  8
Shape004
100
AcDbLine
 10
179.48
 20
-106.028
 30
0
 11
179.48
 21
-106.025
 31
0
  0
LINE
  5
ACF
330
A02
100
AcDbEntity
  8
Shape004
100
AcDbLine
 10
179.48
 20
-106.025
 30
0
 11
179.505
 21
-105.784
 31
0
  0
LINE
  5
AD0
330
A02
100
AcDbEntity
  8
Shape002
100
AcDbLine
 10
96.9554
 20
-105.784
 30
0
 11
97.0202
 21
-105.55
 31
0
  0
LINE
  5
AD1
330
A02
100
AcDbEntity
  8
Shape002
100
AcDbLine
 10
97.0202
 20
-105.55
 30
0
 11
97.1223
 21
-105.33
 31
0
  0
LINE
  5
AD2
330
A02
100
AcDbEntity
  8
Shape002
100
AcDbLine
 10
97.1223
 20
-105.33
 30
0
 11
97.259
 21
-105.13
 31
0
  0
LINE
  5
AD3
330
A02
100
AcDbEntity
  8
Shape002
100
AcDbLine
 10
97.259
 20
-105.13
 30
0
 11
97.4266
 21
-104.954
 31
0
  0
LINE
  5
AD4
330
A02
100
AcDbEntity
  8
Shape002
100
AcDbLine
 10
97.4266
 20
-104.954
 30
0
 11
97.6205
 21
-104.809
 31
0
  0
LINE
  5
AD5
330
A02
100
AcDbEntity
  8
Shape002
100
AcDbLine
 10
97.6205
 20
-104.809
 30
0
 11
97.8356
 21
-104.697
 31
0
  0
LINE
  5
AD6
330
A02
100
AcDbEntity
  8
Shape002
100
AcDbLine
 10
97.8356
 20
-104.697
 30
0
 11
98.0661
 21
-104.621
 31
0
  0
LINE
  5
AD7
330
A02
100
AcDbEntity
  8
Shape002
100
AcDbLine
 10
98.0661
 20
-104.621
 30
0
 11
98.3059
 21
-104.585
 31
0
  0
LINE
  5
AD8
330
A02
100
AcDbEntity
  8
Shape002
100
AcDbLine
 10
98.3059
 20
-104.585
 30
0
 11
98.5484
 21
-104.588
 31
0
  0
LINE
  5
AD9
330
A02
100
AcDbEntity
  8
Shape002
100
AcDbLine
 10
98.5484
 20
-104.588
 30
0
 11
98.7871
 21
-104.63
 31
0
  0
LINE
  5
ADA
330
A02
100
AcDbEntity
  8
Shape002
100
AcDbLine
 10
98.7871
 20
-104.63
 30
0
 11
99.0157
 21
-104.711
 31
0
  0
LINE
  5
ADB
330
A02
100
AcDbEntity
  8
Shape002
100
AcDbLine
 10
99.0157
 20
-104.711
 30
0
 11
99.2281
 21
-104.828
 31
0
  0
LINE
  5
ADC
330
A02
100
AcDbEntity
  8
Shape002
100
AcDbLine
 10
99.2281
 20
-104.828
 30
0
 11
99.4184
 21
-104.979
 31
0
  0
LINE
  5
ADD
330
A02
100
AcDbEntity
  8
Shape002
100
AcDbLine
 10
99.4184
 20
-104.979
 30
0
 11
99.5816
 21
-105.158
 31
0
  0
LINE
  5
ADE
330
A02
100
AcDbEntity
  8
Shape002
100
AcDbLine
 10
99.5816
 20
-105.158
 30
0
 11
99.7133
 21
-105.362
 31
0
  0
LINE
  5
ADF
330
A02
100
AcDbEntity
  8
Shape002
100
AcDbLine
 10
99.7133
 20
-105.362
 30
0
 11
99.81
 21
-105.584
 31
0
  0
LINE
  5
AE0
330
A02
100
AcDbEntity
  8
Shape002
100
AcDbLine
 10
99.81
 20
-105.584
 30
0
 11
99.8691
 21
-105.819
 31
0
  0
LINE
  5
AE1
330
A02
100
AcDbEntity
  8
Shape002
100
AcDbLine
 10
99.8691
 20
-105.819
 30
0
 11
99.889
 21
-106.061
 31
0
  0
LINE
  5
AE2
330
A02
100
AcDbEntity
  8
Shape002
100
AcDbLine
 10
99.889
 20
-106.061
 30
0
 11
99.8872
 21
-106.133
 31
0
  0
LINE
  5
AE3
330
A02
100
AcDbEntity
  8
Shape002
100
AcDbLine
 10
99.8872
 20
-106.133
 30
0
 11
99.8556
 21
-106.374
 31
0
  0
LINE
  5
AE4
330
A02
100
AcDbEntity
  8
Shape002
100
AcDbLine
 10
99.8556
 20
-106.374
 30
0
 11
99.7851
 21
-106.606
 31
0
  0
LINE
  5
AE5
330
A02
100
AcDbEntity
  8
Shape002
100
AcDbLine
 10
99.7851
 20
-106.606
 30
0
 11
99.6776
 21
-106.823
 31
0
  0
LINE
  5
AE6
330
A02
100
AcDbEntity
  8
Shape002
100
AcDbLine
 10
99.6776
 20
-106.823
 30
0
 11
99.5361
 21
-107.02
 31
0
  0
LINE
  5
AE7
330
A02
100
AcDbEntity
  8
Shape002
100
AcDbLine
 10
99.5361
 20
-107.02
 30
0
 11
99.3643
 21
-107.191
 31
0
  0
LINE
  5
AE8
330
A02
100
AcDbEntity
  8
Shape002
100
AcDbLine
 10
99.3643
 20
-107.191
 30
0
 11
99.1669
 21
-107.332
 31
0
  0
LINE
  5
AE9
330
A02
100
AcDbEntity
  8
Shape002
100
AcDbLine
 10
99.1669
 20
-107.332
 30
0
 11
98.9491
 21
-107.439
 31
0
  0
LINE
  5
AEA
330
A02
100
AcDbEntity
  8
Shape002
100
AcDbLine
 10
98.9491
 20
-107.439
 30
0
 11
98.7168
 21
-107.509
 31
0
  0
LINE
  5
AEB
330
A02
100
AcDbEntity
  8
Shape002
100
AcDbLine
 10
98.7168
 20
-107.509
 30
0
 11
98.4762
 21
-107.539
 31
0
  0
LINE
  5
AEC
330
A02
100
AcDbEntity
  8
Shape002
100
AcDbLine
 10
98.4762
 20
-107.539
 30
0
 11
98.2339
 21
-107.53
 31
0
  0
LINE
  5
AED
330
A02
100
AcDbEntity
  8
Shape002
100
AcDbLine
 10
98.2339
 20
-107.53
 30
0
 11
97.9962
 21
-107.482
 31
0
  0
LINE
  5
AEE
330
A02
100
AcDbEntity
  8
Shape002
100
AcDbLine
 10
97.9962
 20
-107.482
 30
0
 11
97.7697
 21
-107.396
 31
0
  0
LINE
  5
AEF
330
A02
100
AcDbEntity
  8
Shape002
100
AcDbLine
 10
97.7697
 20
-107.396
 30
0
 11
97.5603
 21
-107.273
 31
0
  0
LINE
  5
AF0
330
A02
100
AcDbEntity
  8
Shape002
100
AcDbLine
 10
97.5603
 20
-107.273
 30
0
 11
97.3737
 21
-107.118
 31
0
  0
LINE
  5
AF1
330
A02
100
AcDbEntity
  8
Shape002
100
AcDbLine
 10
97.3737
 20
-107.118
 30
0
 11
97.2149
 21
-106.935
 31
0
  0
LINE
  5
AF2
330
A02
100
AcDbEntity
  8
Shape002
100
AcDbLine
 10
97.2149
 20
-106.935
 30
0
 11
97.0882
 21
-106.728
 31
0
  0
LINE
  5
AF3
330
A02
100
AcDbEntity
  8
Shape002
100
AcDbLine
 10
97.0882
 20
-106.728
 30
0
 11
96.9969
 21
-106.504
 31
0
  0
LINE
  5
AF4
330
A02
100
AcDbEntity
  8
Shape002
100
AcDbLine
 10
96.9969
 20
-106.504
 30
0
 11
96.9436
 21
-106.267
 31
0
  0
LINE
  5
AF5
330
A02
100
AcDbEntity
  8
Shape002
100
AcDbLine
 10
96.9436
 20
-106.267
 30
0
 11
96.9298
 21
-106.028
 31
0
  0
LINE
  5
AF6
330
A02
100
AcDbEntity
  8
Shape002
100
AcDbLine
 10
96.9298
 20
-106.028
 30
0
 11
96.9296
 21
-106.025
 31
0
  0
LINE
  5
AF7
330
A02
100
AcDbEntity
  8
Shape002
100
AcDbLine
 10
96.9296
 20
-106.025
 30
0
 11
96.9554
 21
-105.784
 31
0
  0
LINE
  5
AF8
330
A02
100
AcDbEntity
  8
Shape
100
AcDbLine
 10
84.772
 20
-109.176
 30
0
 11
84.5868
 21
-109.127
 31
0
  0
LINE
  5
AF9
330
A02
100
AcDbEntity
  8
Shape
100
AcDbLine
 10
84.5868
 20
-109.127
 30
0
 11
84.413
 21
-109.046
 31
0
  0
LINE
  5
AFA
330
A02
100
AcDbEntity
  8
Shape
100
AcDbLine
 10
84.413
 20
-109.046
 30
0
 11
84.2559
 21
-108.936
 31
0
  0
LINE
  5
AFB
330
A02
100
AcDbEntity
  8
Shape
100
AcDbLine
 10
84.2559
 20
-108.936
 30
0
 11
84.1204
 21
-108.8
 31
0
  0
LINE
  5
AFC
330
A02
100
AcDbEntity
  8
Shape
100
AcDbLine
 10
84.1204
 20
-108.8
 30
0
 11
84.0104
 21
-108.643
 31
0
  0
LINE
  5
AFD
330
A02
100
AcDbEntity
  8
Shape
100
AcDbLine
 10
84.0104
 20
-108.643
 30
0
 11
83.9293
 21
-108.469
 31
0
  0
LINE
  5
AFE
330
A02
100
AcDbEntity
  8
Shape
100
AcDbLine
 10
83.9293
 20
-108.469
 30
0
 11
83.8797
 21
-108.284
 31
0
  0
LINE
  5
AFF
330
A02
100
AcDbEntity
  8
Shape
100
AcDbLine
 10
83.8797
 20
-108.284
 30
0
 11
83.863
 21
-108.093
 31
0
  0
LINE
  5
B00
330
A02
100
AcDbEntity
  8
Shape
100
AcDbLine
 10
83.863
 20
-108.093
 30
0
 11
83.863
 21
-55.9746
 31
0
  0
LINE
  5
B01
330
A02
100
AcDbEntity
  8
Shape
100
AcDbLine
 10
83.863
 20
-55.9746
 30
0
 11
83.8797
 21
-55.7836
 31
0
  0
LINE
  5
B02
330
A02
100
AcDbEntity
  8
Shape
100
AcDbLine
 10
83.8797
 20
-55.7836
 30
0
 11
83.9293
 21
-55.5984
 31
0
  0
LINE
  5
B03
330
A02
100
AcDbEntity
  8
Shape
100
AcDbLine
 10
83.9293
 20
-55.5984
 30
0
 11
84.0104
 21
-55.4246
 31
0
  0
LINE
  5
B04
330
A02
100
AcDbEntity
  8
Shape
100
AcDbLine
 10
84.0104
 20
-55.4246
 30
0
 11
84.1204
 21
-55.2675
 31
0
  0
LINE
  5
B05
330
A02
100
AcDbEntity
  8
Shape
100
AcDbLine
 10
84.1204
 20
-55.2675
 30
0
 11
84.2559
 21
-55.132
 31
0
  0
LINE
  5
B06
330
A02
100
AcDbEntity
  8
Shape
100
AcDbLine
 10
84.2559
 20
-55.132
 30
0
 11
84.413
 21
-55.022
 31
0
  0
LINE
  5
B07
330
A02
100
AcDbEntity
  8
Shape
100
AcDbLine
 10
84.413
 20
-55.022
 30
0
 11
84.5868
 21
-54.9409
 31
0
  0
LINE
  5
B08
330
A02
100
AcDbEntity
  8
Shape
100
AcDbLine
 10
84.5868
 20
-54.9409
 30
0
 11
84.772
 21
-54.8913
 31
0
  0
LINE
  5
B09
330
A02
100
AcDbEntity
  8
Shape
100
AcDbLine
 10
84.772
 20
-54.8913
 30
0
 11
84.963
 21
-54.8746
 31
0
  0
LINE
  5
B0A
330
A02
100
AcDbEntity
  8
Shape
100
AcDbLine
 10
84.963
 20
-54.8746
 30
0
 11
182.134
 21
-54.8746
 31
0
  0
LINE
  5
B0B
330
A02
100
AcDbEntity
  8
Shape
100
AcDbLine
 10
182.134
 20
-54.8746
 30
0
 11
182.142
 21
-54.8771
 31
0
  0
LINE
  5
B0C
330
A02
100
AcDbEntity
  8
Shape
100
AcDbLine
 10
182.142
 20
-54.8771
 30
0
 11
182.15
 21
-54.8758
 31
0
  0
LINE
  5
B0D
330
A02
100
AcDbEntity
  8
Shape
100
AcDbLine
 10
182.15
 20
-54.8758
 30
0
 11
182.17
 21
-54.8865
 31
0
  0
LINE
  5
B0E
330
A02
100
AcDbEntity
  8
Shape
100
AcDbLine
 10
182.17
 20
-54.8865
 30
0
 11
182.193
 21
-54.8937
 31
0
  0
LINE
  5
B0F
330
A02
100
AcDbEntity
  8
Shape
100
AcDbLine
 10
182.193
 20
-54.8937
 30
0
 11
182.197
 21
-54.9002
 31
0
  0
LINE
  5
B10
330
A02
100
AcDbEntity
  8
Shape
100
AcDbLine
 10
182.197
 20
-54.9002
 30
0
 11
182.205
 21
-54.9039
 31
0
  0
LINE
  5
B11
330
A02
100
AcDbEntity
  8
Shape
100
AcDbLine
 10
182.205
 20
-54.9039
 30
0
 11
183.729
 21
-56.4279
 31
0
  0
LINE
  5
B12
330
A02
100
AcDbEntity
  8
Shape
100
AcDbLine
 10
183.729
 20
-56.4279
 30
0
 11
183.732
 21
-56.4351
 31
0
  0
LINE
  5
B13
330
A02
100
AcDbEntity
  8
Shape
100
AcDbLine
 10
183.732
 20
-56.4351
 30
0
 11
183.739
 21
-56.4398
 31
0
  0
LINE
  5
B14
330
A02
100
AcDbEntity
  8
Shape
100
AcDbLine
 10
183.739
 20
-56.4398
 30
0
 11
183.746
 21
-56.4621
 31
0
  0
LINE
  5
B15
330
A02
100
AcDbEntity
  8
Shape
100
AcDbLine
 10
183.746
 20
-56.4621
 30
0
 11
183.757
 21
-56.483
 31
0
  0
LINE
  5
B16
330
A02
100
AcDbEntity
  8
Shape
100
AcDbLine
 10
183.757
 20
-56.483
 30
0
 11
183.755
 21
-56.4909
 31
0
  0
LINE
  5
B17
330
A02
100
AcDbEntity
  8
Shape
100
AcDbLine
 10
183.755
 20
-56.4909
 30
0
 11
183.758
 21
-56.4986
 31
0
  0
LINE
  5
B18
330
A02
100
AcDbEntity
  8
Shape
100
AcDbLine
 10
183.758
 20
-56.4986
 30
0
 11
183.758
 21
-67.8872
 31
0
  0
LINE
  5
B19
330
A02
100
AcDbEntity
  8
Shape
100
AcDbLine
 10
183.758
 20
-67.8872
 30
0
 11
186.269
 21
-70.3979
 31
0
  0
LINE
  5
B1A
330
A02
100
AcDbEntity
  8
Shape
100
AcDbLine
 10
186.269
 20
-70.3979
 30
0
 11
186.272
 21
-70.4051
 31
0
  0
LINE
  5
B1B
330
A02
100
AcDbEntity
  8
Shape
100
AcDbLine
 10
186.272
 20
-70.4051
 30
0
 11
186.279
 21
-70.4098
 31
0
  0
LINE
  5
B1C
330
A02
100
AcDbEntity
  8
Shape
100
AcDbLine
 10
186.279
 20
-70.4098
 30
0
 11
186.286
 21
-70.4321
 31
0
  0
LINE
  5
B1D
330
A02
100
AcDbEntity
  8
Shape
100
AcDbLine
 10
186.286
 20
-70.4321
 30
0
 11
186.297
 21
-70.453
 31
0
  0
LINE
  5
B1E
330
A02
100
AcDbEntity
  8
Shape
100
AcDbLine
 10
186.297
 20
-70.453
 30
0
 11
186.295
 21
-70.4609
 31
0
  0
LINE
  5
B1F
330
A02
100
AcDbEntity
  8
Shape
100
AcDbLine
 10
186.295
 20
-70.4609
 30
0
 11
186.298
 21
-70.4686
 31
0
  0
LINE
  5
B20
330
A02
100
AcDbEntity
  8
Shape
100
AcDbLine
 10
186.298
 20
-70.4686
 30
0
 11
186.298
 21
-103.235
 31
0
  0
LINE
  5
B21
330
A02
100
AcDbEntity
  8
Shape
100
AcDbLine
 10
186.298
 20
-103.235
 30
0
 11
186.295
 21
-103.243
 31
0
  0
LINE
  5
B22
330
A02
100
AcDbEntity
  8
Shape
100
AcDbLine
 10
186.295
 20
-103.243
 30
0
 11
186.297
 21
-103.251
 31
0
  0
LINE
  5
B23
330
A02
100
AcDbEntity
  8
Shape
100
AcDbLine
 10
186.297
 20
-103.251
 30
0
 11
186.286
 21
-103.272
 31
0
  0
LINE
  5
B24
330
A02
100
AcDbEntity
  8
Shape
100
AcDbLine
 10
186.286
 20
-103.272
 30
0
 11
186.279
 21
-103.294
 31
0
  0
LINE
  5
B25
330
A02
100
AcDbEntity
  8
Shape
100
AcDbLine
 10
186.279
 20
-103.294
 30
0
 11
186.272
 21
-103.299
 31
0
  0
LINE
  5
B26
330
A02
100
AcDbEntity
  8
Shape
100
AcDbLine
 10
186.272
 20
-103.299
 30
0
 11
186.269
 21
-103.306
 31
0
  0
LINE
  5
B27
330
A02
100
AcDbEntity
  8
Shape
100
AcDbLine
 10
186.269
 20
-103.306
 30
0
 11
183.758
 21
-105.816
 31
0
  0
LINE
  5
B28
330
A02
100
AcDbEntity
  8
Shape
100
AcDbLine
 10
183.758
 20
-105.816
 30
0
 11
183.758
 21
-108.093
 31
0
  0
LINE
  5
B29
330
A02
100
AcDbEntity
  8
Shape
100
AcDbLine
 10
183.758
 20
-108.093
 30
0
 11
183.741
 21
-108.284
 31
0
  0
LINE
  5
B2A
330
A02
100
AcDbEntity
  8
Shape
100
AcDbLine
 10
183.741
 20
-108.284
 30
0
 11
183.692
 21
-108.469
 31
0
  0
LINE
  5
B2B
330
A02
100
AcDbEntity
  8
Shape
100
AcDbLine
 10
183.692
 20
-108.469
 30
0
 11
183.611
 21
-108.643
 31
0
  0
LINE
  5
B2C
330
A02
100
AcDbEntity
  8
Shape
100
AcDbLine
 10
183.611
 20
-108.643
 30
0
 11
183.501
 21
-108.8
 31
0
  0
LINE
  5
B2D
330
A02
100
AcDbEntity
  8
Shape
100
AcDbLine
 10
183.501
 20
-108.8
 30
0
 11
183.365
 21
-108.936
 31
0
  0
LINE
  5
B2E
330
A02
100
AcDbEntity
  8
Shape
100
AcDbLine
 10
183.365
 20
-108.936
 30
0
 11
183.208
 21
-109.046
 31
0
  0
LINE
  5
B2F
330
A02
100
AcDbEntity
  8
Shape
100
AcDbLine
 10
183.208
 20
-109.046
 30
0
 11
183.034
 21
-109.127
 31
0
  0
LINE
  5
B30
330
A02
100
AcDbEntity
  8
Shape
100
AcDbLine
 10
183.034
 20
-109.127
 30
0
 11
182.849
 21
-109.176
 31
0
  0
LINE
  5
B31
330
A02
100
AcDbEntity
  8
Shape
100
AcDbLine
 10
182.849
 20
-109.176
 30
0
 11
182.658
 21
-109.193
 31
0
  0
LINE
  5
B32
330
A02
100
AcDbEntity
  8
Shape
100
AcDbLine
 10
182.658
 20
-109.193
 30
0
 11
84.963
 21
-109.193
 31
0
  0
LINE
  5
B33
330
A02
100
AcDbEntity
  8
Shape
100
AcDbLine
 10
84.963
 20
-109.193
 30
0
 11
84.772
 21
-109.176
 31
0
  0
ENDSEC
  0
SECTION
  2
OBJECTS
  0
DICTIONARY
  5
F000
330
0
100
AcDbDictionary
  3
ACAD_GROUP
350
F001
  0
DICTIONARY
  5
F001
330
F000
100
AcDbDictionary
  0
ENDSEC
  0
EOF