  0
SECTION
  2
HEADER
  9
$ACADVER
  1
AC1014
  9
$HANDSEED
  5
FFFF
  9
$MEASUREMENT
 70
     1
  0
ENDSEC
  0
SECTION
  2
TABLES
  0
TABLE
  2
VPORT
  5
8
330
0
100
AcDbSymbolTable
 70
     4
  0
VPORT
  5
2E
330
8
100
AcDbSymbolTableRecord
100
AcDbViewportTableRecord
  2
*ACTIVE
 70
     0
 10
0.0
 20
0.0
 11
1.0
 21
1.0
 12
210.0
 22
148.5
 13
0.0
 23
0.0
 14
10.0
 24
10.0
 15
10.0
 25
10.0
 16
0.0
 26
0.0
 36
1.0
 17
0.0
 27
0.0
 37
0.0
 40
341.0
 41
1.24
 42
50.0
 43
0.0
 44
0.0
 50
0.0
 51
0.0
 71
     0
 72
   100
 73
     1
 74
     3
 75
     0
 76
     0
 77
     0
 78
     0
  0
ENDTAB
  0
TABLE
  2
LTYPE
  5
5
330
0
100
AcDbSymbolTable
 70
     1
  0
LTYPE
  5
14
330
5
100
AcDbSymbolTableRecord
100
AcDbLinetypeTableRecord
  2
BYBLOCK
 70
     0
  3

 72
    65
 73
     0
 40
0.0
  0
LTYPE
  5
15
330
5
100
AcDbSymbolTableRecord
100
AcDbLinetypeTableRecord
  2
BYLAYER
 70
     0
  3

 72
    65
 73
     0
 40
0.0
  0
LTYPE
  5
16
330
5
100
AcDbSymbolTableRecord
100
AcDbLinetypeTableRecord
  2
CONTINUOUS
 70
     0
  3
Solid line
 72
    65
 73
     0
 40
0.0
  0
ENDTAB
  0
TABLE
  2
LAYER
  5
2
100
AcDbSymbolTable
 70
2
  0
LAYER
  5
50
100
AcDbSymbolTableRecord
100
AcDbLayerTableRecord
  2
0
 70
0
  6
CONTINUOUS
  0
LAYER
  5
51
100
AcDbSymbolTableRecord
100
AcDbLayerTableRecord
  2
Layer_1
 70
0
  6
CONTINUOUS
  0
ENDTAB
  0
TABLE
  2
STYLE
  5
3
330
0
100
AcDbSymbolTable
 70
     1
  0
STYLE
  5
11
330
3
100
AcDbSymbolTableRecord
100
AcDbTextStyleTableRecord
  2
STANDARD
 70
     0
 40
0.0
 41
1.0
 50
0.0
 71
     0
 42
2.5
  3
txt
  4

  0
ENDTAB
  0
TABLE
  2
VIEW
  5
6
330
0
100
AcDbSymbolTable
 70
     0
  0
ENDTAB
  0
TABLE
  2
UCS
  5
7
330
0
100
AcDbSymbolTable
 70
     0
  0
ENDTAB
  0
TABLE
  2
APPID
  5
9
330
0
100
AcDbSymbolTable
 70
     2
  0
APPID
  5
12
330
9
100
AcDbSymbolTableRecord
100
AcDbRegAppTableRecord
  2
ACAD
 70
     0
  0
ENDTAB
  0
TABLE
  2
DIMSTYLE
  5
A
330
0
100
AcDbSymbolTable
 70
     1
  0
DIMSTYLE
105
27
330
A
100
AcDbSymbolTableRecord
100
AcDbDimStyleTableRecord
  2
ISO-25
 70
     0
  3

  4

  5

  6

  7

 40
1.0
 41
2.5
 42
0.625
 43
3.75
 44
1.25
 45
0.0
 46
0.0
 47
0.0
 48
0.0
140
2.5
141
2.5
142
0.0
143
0.03937007874016
144
1.0
145
0.0
146
1.0
147
0.625
 71
     0
 72
     0
 73
     0
 74
     0
 75
     0
 76
     0
 77
     1
 78
     8
170
     0
171
     3
172
     1
173
     0
174
     0
175
     0
176
     0
177
     0
178
     0
270
     2
271
     2
272
     2
273
     2
274
     3
340
11
275
     0
280
     0
281
     0
282
     0
283
     0
284
     8
285
     0
286
     0
287
     3
288
     0
  0
ENDTAB
  0
TABLE
  2
BLOCK_RECORD
  5
1
330
0
100
AcDbSymbolTable
 70
     1
  0
BLOCK_RECORD
  5
1F
330
1
100
AcDbSymbolTableRecord
100
AcDbBlockTableRecord
  2
*MODEL_SPACE
  0
BLOCK_RECORD
  5
1B
330
1
100
AcDbSymbolTableRecord
100
AcDbBlockTableRecord
  2
*PAPER_SPACE
  0
ENDTAB
  0
ENDSEC
  0
SECTION
  2
BLOCKS
  0
BLOCK
  5
20
330
1F
100
AcDbEntity
  8
0
100
AcDbBlockBegin
  2
*MODEL_SPACE
 70
     0
 10
0.0
 20
0.0
 30
0.0
  3
*MODEL_SPACE
  1

  0
ENDBLK
  5
21
330
1F
100
AcDbEntity
  8
0
100
AcDbBlockEnd
  0
BLOCK
  5
1C
330
1B
100
AcDbEntity
 67
     1
  8
0
100
AcDbBlockBegin
  2
*PAPER_SPACE
  1

  0
ENDBLK
  5
1D
330
1B
100
AcDbEntity
 67
     1
  8
0
100
AcDbBlockEnd
  0
ENDSEC
  0
SECTION
  2
ENTITIES
  0
SPLINE
  5
100
100
AcDbEntity
  8
Layer_1
 62
7
100
AcDbSpline
 70
8
 71
3
 72
8
 73
4
 74
0
 40
0
 40
0
 40
0
 40
0
 40
1
 40
1
 40
1
 40
1
 10
8.578438
 20
129.866130
 30
0.0
 10
3.900409
 20
129.866130
 30
0.0
 10
0.133993
 20
126.100230
 30
0.0
 10
0.133993
 20
121.422200
 30
0.0
  0
LINE
  5
101
100
AcDbEntity
  8
Layer_1
 62
7
100
AcDbLine
 10
0.133993
 20
121.422200
 30
0.0
 11
0.133993
 21
8.578440
 31
0.0
  0
SPLINE
  5
102
100
AcDbEntity
  8
Layer_1
 62
7
100
AcDbSpline
 70
8
 71
3
 72
8
 73
4
 74
0
 40
0
 40
0
 40
0
 40
0
 40
1
 40
1
 40
1
 40
1
 10
0.133993
 20
8.578440
 30
0.0
 10
0.133993
 20
3.900420
 30
0.0
 10
3.900409
 20
0.133990
 30
0.0
 10
8.578438
 20
0.133990
 30
0.0
  0
LINE
  5
103
100
AcDbEntity
  8
Layer_1
 62
7
100
AcDbLine
 10
8.578438
 20
0.133990
 30
0.0
 11
35.000080
 21
0.133990
 31
0.0
  0
LINE
  5
104
100
AcDbEntity
  8
Layer_1
 62
7
100
AcDbLine
 10
35.000080
 20
0.133990
 30
0.0
 11
35.000080
 21
10.000070
 31
0.0
  0
LINE
  5
105
100
AcDbEntity
  8
Layer_1
 62
7
100
AcDbLine
 10
35.000080
 20
10.000070
 30
0.0
 11
15.000268
 21
25.000200
 31
0.0
  0
LINE
  5
106
100
AcDbEntity
  8
Layer_1
 62
7
100
AcDbLine
 10
15.000268
 20
25.000200
 30
0.0
 11
15.000268
 21
54.999900
 31
0.0
  0
LINE
  5
107
100
AcDbEntity
  8
Layer_1
 62
7
100
AcDbLine
 10
15.000268
 20
54.999900
 30
0.0
 11
30.000387
 21
54.999900
 31
0.0
  0
LINE
  5
108
100
AcDbEntity
  8
Layer_1
 62
7
100
AcDbLine
 10
30.000387
 20
54.999900
 30
0.0
 11
30.000387
 21
45.000000
 31
0.0
  0
LINE
  5
109
100
AcDbEntity
  8
Layer_1
 62
7
100
AcDbLine
 10
30.000387
 20
45.000000
 30
0.0
 11
25.000175
 21
35.000090
 31
0.0
  0
LINE
  5
10a
100
AcDbEntity
  8
Layer_1
 62
7
100
AcDbLine
 10
25.000175
 20
35.000090
 30
0.0
 11
25.000175
 21
25.000200
 31
0.0
  0
LINE
  5
10b
100
AcDbEntity
  8
Layer_1
 62
7
100
AcDbLine
 10
25.000175
 20
25.000200
 30
0.0
 11
44.999986
 21
10.000070
 31
0.0
  0
LINE
  5
10c
100
AcDbEntity
  8
Layer_1
 62
7
100
AcDbLine
 10
44.999986
 20
10.000070
 30
0.0
 11
44.999986
 21
0.133990
 31
0.0
  0
LINE
  5
10d
100
AcDbEntity
  8
Layer_1
 62
7
100
AcDbLine
 10
44.999986
 20
0.133990
 30
0.0
 11
91.421963
 21
0.133990
 31
0.0
  0
SPLINE
  5
10e
100
AcDbEntity
  8
Layer_1
 62
7
100
AcDbSpline
 70
8
 71
3
 72
8
 73
4
 74
0
 40
0
 40
0
 40
0
 40
0
 40
1
 40
1
 40
1
 40
1
 10
91.421963
 20
0.133990
 30
0.0
 10
96.099993
 20
0.133990
 30
0.0
 10
99.866403
 20
3.900420
 30
0.0
 10
99.866403
 20
8.578440
 30
0.0
  0
LINE
  5
10f
100
AcDbEntity
  8
Layer_1
 62
7
100
AcDbLine
 10
99.866403
 20
8.578440
 30
0.0
 11
99.866403
 21
12.921860
 31
0.0
  0
SPLINE
  5
110
100
AcDbEntity
  8
Layer_1
 62
7
100
AcDbSpline
 70
8
 71
3
 72
8
 73
4
 74
0
 40
0
 40
0
 40
0
 40
0
 40
1
 40
1
 40
1
 40
1
 10
99.866403
 20
12.921860
 30
0.0
 10
99.498017
 20
13.130448
 30
0.0
 10
99.136442
 20
13.350704
 30
0.0
 10
98.782233
 20
13.582290
 30
0.0
  0
SPLINE
  5
111
100
AcDbEntity
  8
Layer_1
 62
7
100
AcDbSpline
 70
8
 71
3
 72
8
 73
4
 74
0
 40
0
 40
0
 40
0
 40
0
 40
1
 40
1
 40
1
 40
1
 10
98.782233
 20
13.582290
 30
0.0
 10
98.235601
 20
13.954097
 30
0.0
 10
97.708015
 20
14.352845
 30
0.0
 10
97.201453
 20
14.777040
 30
0.0
  0
SPLINE
  5
112
100
AcDbEntity
  8
Layer_1
 62
7
100
AcDbSpline
 70
8
 71
3
 72
8
 73
4
 74
0
 40
0
 40
0
 40
0
 40
0
 40
1
 40
1
 40
1
 40
1
 10
97.201453
 20
14.777040
 30
0.0
 10
96.694808
 20
15.201228
 30
0.0
 10
96.209822
 20
15.650339
 30
0.0
 10
95.748313
 20
16.122690
 30
0.0
  0
SPLINE
  5
113
100
AcDbEntity
  8
Layer_1
 62
7
100
AcDbSpline
 70
8
 71
3
 72
8
 73
4
 74
0
 40
0
 40
0
 40
0
 40
0
 40
1
 40
1
 40
1
 40
1
 10
95.748313
 20
16.122690
 30
0.0
 10
95.286875
 20
16.595038
 30
0.0
 10
94.849489
 20
17.090030
 30
0.0
 10
94.437793
 20
17.605810
 30
0.0
  0
SPLINE
  5
114
100
AcDbEntity
  8
Layer_1
 62
7
100
AcDbSpline
 70
8
 71
3
 72
8
 73
4
 74
0
 40
0
 40
0
 40
0
 40
0
 40
1
 40
1
 40
1
 40
1
 10
94.437793
 20
17.605810
 30
0.0
 10
94.025948
 20
18.121517
 30
0.0
 10
93.640306
 20
18.657377
 30
0.0
 10
93.282313
 20
19.211380
 30
0.0
  0
SPLINE
  5
115
100
AcDbEntity
  8
Layer_1
 62
7
100
AcDbSpline
 70
8
 71
3
 72
8
 73
4
 74
0
 40
0
 40
0
 40
0
 40
0
 40
1
 40
1
 40
1
 40
1
 10
93.282313
 20
19.211380
 30
0.0
 10
92.924444
 20
19.765505
 30
0.0
 10
92.594678
 20
20.337076
 30
0.0
 10
92.294253
 20
20.923950
 30
0.0
  0
SPLINE
  5
116
100
AcDbEntity
  8
Layer_1
 62
7
100
AcDbSpline
 70
8
 71
3
 72
8
 73
4
 74
0
 40
0
 40
0
 40
0
 40
0
 40
1
 40
1
 40
1
 40
1
 10
92.294253
 20
20.923950
 30
0.0
 10
91.993938
 20
21.510786
 30
0.0
 10
91.723334
 20
22.112184
 30
0.0
 10
91.483453
 20
22.725890
 30
0.0
  0
SPLINE
  5
117
100
AcDbEntity
  8
Layer_1
 62
7
100
AcDbSpline
 70
8
 71
3
 72
8
 73
4
 74
0
 40
0
 40
0
 40
0
 40
0
 40
1
 40
1
 40
1
 40
1
 10
91.483453
 20
22.725890
 30
0.0
 10
91.243396
 20
23.339548
 30
0.0
 10
91.034362
 20
23.964755
 30
0.0
 10
90.857133
 20
24.599170
 30
0.0
  0
SPLINE
  5
118
100
AcDbEntity
  8
Layer_1
 62
7
100
AcDbSpline
 70
8
 71
3
 72
8
 73
4
 74
0
 40
0
 40
0
 40
0
 40
0
 40
1
 40
1
 40
1
 40
1
 10
90.857133
 20
24.599170
 30
0.0
 10
90.679890
 20
25.233552
 30
0.0
 10
90.534672
 20
25.876348
 30
0.0
 10
90.422023
 20
26.525150
 30
0.0
  0
SPLINE
  5
119
100
AcDbEntity
  8
Layer_1
 62
7
100
AcDbSpline
 70
8
 71
3
 72
8
 73
4
 74
0
 40
0
 40
0
 40
0
 40
0
 40
1
 40
1
 40
1
 40
1
 10
90.422023
 20
26.525150
 30
0.0
 10
90.309459
 20
27.173970
 30
0.0
 10
90.229606
 20
27.827980
 30
0.0
 10
90.182763
 20
28.484730
 30
0.0
  0
SPLINE
  5
11a
100
AcDbEntity
  8
Layer_1
 62
7
100
AcDbSpline
 70
8
 71
3
 72
8
 73
4
 74
0
 40
0
 40
0
 40
0
 40
0
 40
1
 40
1
 40
1
 40
1
 10
90.182763
 20
28.484730
 30
0.0
 10
90.149643
 20
28.949775
 30
0.0
 10
90.133099
 20
29.415841
 30
0.0
 10
90.133163
 20
29.882050
 30
0.0
  0
SPLINE
  5
11b
100
AcDbEntity
  8
Layer_1
 62
7
100
AcDbSpline
 70
8
 71
3
 72
8
 73
4
 74
0
 40
0
 40
0
 40
0
 40
0
 40
1
 40
1
 40
1
 40
1
 10
90.133163
 20
29.882050
 30
0.0
 10
90.133150
 20
30.540436
 30
0.0
 10
90.166258
 20
31.198411
 30
0.0
 10
90.232363
 20
31.853510
 30
0.0
  0
SPLINE
  5
11c
100
AcDbEntity
  8
Layer_1
 62
7
100
AcDbSpline
 70
8
 71
3
 72
8
 73
4
 74
0
 40
0
 40
0
 40
0
 40
0
 40
1
 40
1
 40
1
 40
1
 10
90.232363
 20
31.853510
 30
0.0
 10
90.298444
 20
32.508625
 30
0.0
 10
90.397441
 20
33.160045
 30
0.0
 10
90.528983
 20
33.805330
 30
0.0
  0
SPLINE
  5
11d
100
AcDbEntity
  8
Layer_1
 62
7
100
AcDbSpline
 70
8
 71
3
 72
8
 73
4
 74
0
 40
0
 40
0
 40
0
 40
0
 40
1
 40
1
 40
1
 40
1
 10
90.528983
 20
33.805330
 30
0.0
 10
90.660623
 20
34.450588
 30
0.0
 10
90.824641
 20
35.088898
 30
0.0
 10
91.020423
 20
35.717870
 30
0.0
  0
SPLINE
  5
11e
100
AcDbEntity
  8
Layer_1
 62
7
100
AcDbSpline
 70
8
 71
3
 72
8
 73
4
 74
0
 40
0
 40
0
 40
0
 40
0
 40
1
 40
1
 40
1
 40
1
 10
91.020423
 20
35.717870
 30
0.0
 10
91.216207
 20
36.346995
 30
0.0
 10
91.443524
 20
36.965992
 30
0.0
 10
91.701523
 20
37.572540
 30
0.0
  0
SPLINE
  5
11f
100
AcDbEntity
  8
Layer_1
 62
7
100
AcDbSpline
 70
8
 71
3
 72
8
 73
4
 74
0
 40
0
 40
0
 40
0
 40
0
 40
1
 40
1
 40
1
 40
1
 10
91.701523
 20
37.572540
 30
0.0
 10
91.959368
 20
38.179035
 30
0.0
 10
92.247565
 20
38.772333
 30
0.0
 10
92.565033
 20
39.350210
 30
0.0
  0
SPLINE
  5
120
100
AcDbEntity
  8
Layer_1
 62
7
100
AcDbSpline
 70
8
 71
3
 72
8
 73
4
 74
0
 40
0
 40
0
 40
0
 40
0
 40
1
 40
1
 40
1
 40
1
 10
92.565033
 20
39.350210
 30
0.0
 10
92.882663
 20
39.927925
 30
0.0
 10
93.229155
 20
40.489489
 30
0.0
 10
93.603213
 20
41.032800
 30
0.0
  0
SPLINE
  5
121
100
AcDbEntity
  8
Layer_1
 62
7
100
AcDbSpline
 70
8
 71
3
 72
8
 73
4
 74
0
 40
0
 40
0
 40
0
 40
0
 40
1
 40
1
 40
1
 40
1
 10
93.603213
 20
41.032800
 30
0.0
 10
93.977106
 20
41.576206
 30
0.0
 10
94.378100
 20
42.100688
 30
0.0
 10
94.804693
 20
42.604280
 30
0.0
  0
SPLINE
  5
122
100
AcDbEntity
  8
Layer_1
 62
7
100
AcDbSpline
 70
8
 71
3
 72
8
 73
4
 74
0
 40
0
 40
0
 40
0
 40
0
 40
1
 40
1
 40
1
 40
1
 10
94.804693
 20
42.604280
 30
0.0
 10
95.231494
 20
43.107866
 30
0.0
 10
95.683365
 20
43.589918
 30
0.0
 10
96.158613
 20
44.048630
 30
0.0
  0
SPLINE
  5
123
100
AcDbEntity
  8
Layer_1
 62
7
100
AcDbSpline
 70
8
 71
3
 72
8
 73
4
 74
0
 40
0
 40
0
 40
0
 40
0
 40
1
 40
1
 40
1
 40
1
 10
96.158613
 20
44.048630
 30
0.0
 10
96.633743
 20
44.507510
 30
0.0
 10
97.131665
 20
44.942480
 30
0.0
 10
97.650513
 20
45.351910
 30
0.0
  0
SPLINE
  5
124
100
AcDbEntity
  8
Layer_1
 62
7
100
AcDbSpline
 70
8
 71
3
 72
8
 73
4
 74
0
 40
0
 40
0
 40
0
 40
0
 40
1
 40
1
 40
1
 40
1
 10
97.650513
 20
45.351910
 30
0.0
 10
98.169387
 20
45.761190
 30
0.0
 10
98.708527
 20
46.144418
 30
0.0
 10
99.265913
 20
46.500160
 30
0.0
  0
SPLINE
  5
125
100
AcDbEntity
  8
Layer_1
 62
7
100
AcDbSpline
 70
8
 71
3
 72
8
 73
4
 74
0
 40
0
 40
0
 40
0
 40
0
 40
1
 40
1
 40
1
 40
1
 10
99.265913
 20
46.500160
 30
0.0
 10
99.464059
 20
46.617651
 30
0.0
 10
99.664250
 20
46.731701
 30
0.0
 10
99.866393
 20
46.842260
 30
0.0
  0
LINE
  5
126
100
AcDbEntity
  8
Layer_1
 62
7
100
AcDbLine
 10
99.866393
 20
46.842260
 30
0.0
 11
99.866393
 21
121.422200
 31
0.0
  0
SPLINE
  5
127
100
AcDbEntity
  8
Layer_1
 62
7
100
AcDbSpline
 70
8
 71
3
 72
8
 73
4
 74
0
 40
0
 40
0
 40
0
 40
0
 40
1
 40
1
 40
1
 40
1
 10
99.866393
 20
121.422200
 30
0.0
 10
99.866393
 20
126.100230
 30
0.0
 10
96.099983
 20
129.866130
 30
0.0
 10
91.421953
 20
129.866130
 30
0.0
  0
LINE
  5
128
100
AcDbEntity
  8
Layer_1
 62
7
100
AcDbLine
 10
91.421953
 20
129.866130
 30
0.0
 11
8.578438
 21
129.866130
 31
0.0
  0
SPLINE
  5
129
100
AcDbEntity
  8
Layer_1
 62
7
100
AcDbSpline
 70
8
 71
3
 72
8
 73
4
 74
0
 40
0
 40
0
 40
0
 40
0
 40
1
 40
1
 40
1
 40
1
 10
34.892623
 20
110.000110
 30
0.0
 10
34.892623
 20
106.465871
 30
0.0
 10
33.007129
 20
103.200099
 30
0.0
 10
29.946388
 20
101.432979
 30
0.0
  0
SPLINE
  5
12a
100
AcDbEntity
  8
Layer_1
 62
7
100
AcDbSpline
 70
8
 71
3
 72
8
 73
4
 74
0
 40
0
 40
0
 40
0
 40
0
 40
1
 40
1
 40
1
 40
1
 10
29.946388
 20
101.432979
 30
0.0
 10
26.885646
 20
99.665860
 30
0.0
 10
23.114658
 20
99.665860
 30
0.0
 10
20.053916
 20
101.432979
 30
0.0
  0
SPLINE
  5
12b
100
AcDbEntity
  8
Layer_1
 62
7
100
AcDbSpline
 70
8
 71
3
 72
8
 73
4
 74
0
 40
0
 40
0
 40
0
 40
0
 40
1
 40
1
 40
1
 40
1
 10
20.053916
 20
101.432979
 30
0.0
 10
16.993175
 20
103.200099
 30
0.0
 10
15.107681
 20
106.465871
 30
0.0
 10
15.107681
 20
110.000110
 30
0.0
  0
SPLINE
  5
12c
100
AcDbEntity
  8
Layer_1
 62
7
100
AcDbSpline
 70
8
 71
3
 72
8
 73
4
 74
0
 40
0
 40
0
 40
0
 40
0
 40
1
 40
1
 40
1
 40
1
 10
15.107681
 20
110.000110
 30
0.0
 10
15.107681
 20
113.534349
 30
0.0
 10
16.993175
 20
116.800121
 30
0.0
 10
20.053916
 20
118.567241
 30
0.0
  0
SPLINE
  5
12d
100
AcDbEntity
  8
Layer_1
 62
7
100
AcDbSpline
 70
8
 71
3
 72
8
 73
4
 74
0
 40
0
 40
0
 40
0
 40
0
 40
1
 40
1
 40
1
 40
1
 10
20.053916
 20
118.567241
 30
0.0
 10
23.114658
 20
120.334360
 30
0.0
 10
26.885646
 20
120.334360
 30
0.0
 10
29.946388
 20
118.567241
 30
0.0
  0
SPLINE
  5
12e
100
AcDbEntity
  8
Layer_1
 62
7
100
AcDbSpline
 70
8
 71
3
 72
8
 73
4
 74
0
 40
0
 40
0
 40
0
 40
0
 40
1
 40
1
 40
1
 40
1
 10
29.946388
 20
118.567241
 30
0.0
 10
33.007129
 20
116.800121
 30
0.0
 10
34.892623
 20
113.534349
 30
0.0
 10
34.892623
 20
110.000110
 30
0.0
  0
LINE
  5
12f
100
AcDbEntity
  8
Layer_1
 62
7
100
AcDbLine
 10
34.892623
 20
110.000110
 30
0.0
 11
34.892623
 21
110.000110
 31
0.0
  0
SPLINE
  5
130
100
AcDbEntity
  8
Layer_1
 62
7
100
AcDbSpline
 70
8
 71
3
 72
8
 73
4
 74
0
 40
0
 40
0
 40
0
 40
0
 40
1
 40
1
 40
1
 40
1
 10
59.892624
 20
110.000110
 30
0.0
 10
59.892624
 20
106.465870
 30
0.0
 10
58.007130
 20
103.200098
 30
0.0
 10
54.946388
 20
101.432979
 30
0.0
  0
SPLINE
  5
131
100
AcDbEntity
  8
Layer_1
 62
7
100
AcDbSpline
 70
8
 71
3
 72
8
 73
4
 74
0
 40
0
 40
0
 40
0
 40
0
 40
1
 40
1
 40
1
 40
1
 10
54.946388
 20
101.432979
 30
0.0
 10
51.885647
 20
99.665859
 30
0.0
 10
48.114657
 20
99.665859
 30
0.0
 10
45.053916
 20
101.432979
 30
0.0
  0
SPLINE
  5
132
100
AcDbEntity
  8
Layer_1
 62
7
100
AcDbSpline
 70
8
 71
3
 72
8
 73
4
 74
0
 40
0
 40
0
 40
0
 40
0
 40
1
 40
1
 40
1
 40
1
 10
45.053916
 20
101.432979
 30
0.0
 10
41.993174
 20
103.200098
 30
0.0
 10
40.107680
 20
106.465870
 30
0.0
 10
40.107680
 20
110.000110
 30
0.0
  0
SPLINE
  5
133
100
AcDbEntity
  8
Layer_1
 62
7
100
AcDbSpline
 70
8
 71
3
 72
8
 73
4
 74
0
 40
0
 40
0
 40
0
 40
0
 40
1
 40
1
 40
1
 40
1
 10
40.107680
 20
110.000110
 30
0.0
 10
40.107680
 20
115.463571
 30
0.0
 10
44.536691
 20
119.892581
 30
0.0
 10
50.000152
 20
119.892581
 30
0.0
  0
SPLINE
  5
134
100
AcDbEntity
  8
Layer_1
 62
7
100
AcDbSpline
 70
8
 71
3
 72
8
 73
4
 74
0
 40
0
 40
0
 40
0
 40
0
 40
1
 40
1
 40
1
 40
1
 10
50.000152
 20
119.892581
 30
0.0
 10
55.463613
 20
119.892581
 30
0.0
 10
59.892624
 20
115.463571
 30
0.0
 10
59.892624
 20
110.000110
 30
0.0
  0
LINE
  5
135
100
AcDbEntity
  8
Layer_1
 62
7
100
AcDbLine
 10
59.892624
 20
110.000110
 30
0.0
 11
59.892624
 21
110.000110
 31
0.0
  0
SPLINE
  5
136
100
AcDbEntity
  8
Layer_1
 62
7
100
AcDbSpline
 70
8
 71
3
 72
8
 73
4
 74
0
 40
0
 40
0
 40
0
 40
0
 40
1
 40
1
 40
1
 40
1
 10
84.892625
 20
110.000110
 30
0.0
 10
84.892625
 20
106.465870
 30
0.0
 10
83.007131
 20
103.200098
 30
0.0
 10
79.946389
 20
101.432979
 30
0.0
  0
SPLINE
  5
137
100
AcDbEntity
  8
Layer_1
 62
7
100
AcDbSpline
 70
8
 71
3
 72
8
 73
4
 74
0
 40
0
 40
0
 40
0
 40
0
 40
1
 40
1
 40
1
 40
1
 10
79.946389
 20
101.432979
 30
0.0
 10
76.885648
 20
99.665859
 30
0.0
 10
73.114658
 20
99.665859
 30
0.0
 10
70.053917
 20
101.432979
 30
0.0
  0
SPLINE
  5
138
100
AcDbEntity
  8
Layer_1
 62
7
100
AcDbSpline
 70
8
 71
3
 72
8
 73
4
 74
0
 40
0
 40
0
 40
0
 40
0
 40
1
 40
1
 40
1
 40
1
 10
70.053917
 20
101.432979
 30
0.0
 10
66.993175
 20
103.200098
 30
0.0
 10
65.107681
 20
106.465870
 30
0.0
 10
65.107681
 20
110.000110
 30
0.0
  0
SPLINE
  5
139
100
AcDbEntity
  8
Layer_1
 62
7
100
AcDbSpline
 70
8
 71
3
 72
8
 73
4
 74
0
 40
0
 40
0
 40
0
 40
0
 40
1
 40
1
 40
1
 40
1
 10
65.107681
 20
110.000110
 30
0.0
 10
65.107681
 20
113.534350
 30
0.0
 10
66.993175
 20
116.800122
 30
0.0
 10
70.053917
 20
118.567241
 30
0.0
  0
SPLINE
  5
13a
100
AcDbEntity
  8
Layer_1
 62
7
100
AcDbSpline
 70
8
 71
3
 72
8
 73
4
 74
0
 40
0
 40
0
 40
0
 40
0
 40
1
 40
1
 40
1
 40
1
 10
70.053917
 20
118.567241
 30
0.0
 10
73.114658
 20
120.334361
 30
0.0
 10
76.885648
 20
120.334361
 30
0.0
 10
79.946389
 20
118.567241
 30
0.0
  0
SPLINE
  5
13b
100
AcDbEntity
  8
Layer_1
 62
7
100
AcDbSpline
 70
8
 71
3
 72
8
 73
4
 74
0
 40
0
 40
0
 40
0
 40
0
 40
1
 40
1
 40
1
 40
1
 10
79.946389
 20
118.567241
 30
0.0
 10
83.007131
 20
116.800122
 30
0.0
 10
84.892625
 20
113.534350
 30
0.0
 10
84.892625
 20
110.000110
 30
0.0
  0
LINE
  5
13c
100
AcDbEntity
  8
Layer_1
 62
7
100
AcDbLine
 10
84.892625
 20
110.000110
 30
0.0
 11
84.892625
 21
110.000110
 31
0.0
  0
SPLINE
  5
13d
100
AcDbEntity
  8
Layer_1
 62
7
100
AcDbSpline
 70
8
 71
3
 72
8
 73
4
 74
0
 40
0
 40
0
 40
0
 40
0
 40
1
 40
1
 40
1
 40
1
 10
76.017660
 20
60.912968
 30
0.0
 10
75.363620
 20
59.640373
 30
0.0
 10
65.419648
 20
53.232043
 30
0.0
 10
63.990527
 20
53.162160
 30
0.0
  0
SPLINE
  5
13e
100
AcDbEntity
  8
Layer_1
 62
7
100
AcDbSpline
 70
8
 71
3
 72
8
 73
4
 74
0
 40
0
 40
0
 40
0
 40
0
 40
1
 40
1
 40
1
 40
1
 10
63.990527
 20
53.162160
 30
0.0
 10
62.561411
 20
53.092268
 30
0.0
 10
52.039645
 20
58.499831
 30
0.0
 10
51.264563
 20
59.702544
 30
0.0
  0
SPLINE
  5
13f
100
AcDbEntity
  8
Layer_1
 62
7
100
AcDbSpline
 70
8
 71
3
 72
8
 73
4
 74
0
 40
0
 40
0
 40
0
 40
0
 40
1
 40
1
 40
1
 40
1
 10
51.264563
 20
59.702544
 30
0.0
 10
50.489486
 20
60.905258
 30
0.0
 10
49.911683
 20
72.721157
 30
0.0
 10
50.565723
 20
73.993752
 30
0.0
  0
SPLINE
  5
140
100
AcDbEntity
  8
Layer_1
 62
7
100
AcDbSpline
 70
8
 71
3
 72
8
 73
4
 74
0
 40
0
 40
0
 40
0
 40
0
 40
1
 40
1
 40
1
 40
1
 10
50.565723
 20
73.993752
 30
0.0
 10
51.219763
 20
75.266348
 30
0.0
 10
61.163729
 20
81.674685
 30
0.0
 10
62.592851
 20
81.744569
 30
0.0
  0
SPLINE
  5
141
100
AcDbEntity
  8
Layer_1
 62
7
100
AcDbSpline
 70
8
 71
3
 72
8
 73
4
 74
0
 40
0
 40
0
 40
0
 40
0
 40
1
 40
1
 40
1
 40
1
 10
62.592851
 20
81.744569
 30
0.0
 10
64.021972
 20
81.814452
 30
0.0
 10
74.543738
 20
76.406889
 30
0.0
 10
75.318819
 20
75.204177
 30
0.0
  0
SPLINE
  5
142
100
AcDbEntity
  8
Layer_1
 62
7
100
AcDbSpline
 70
8
 71
3
 72
8
 73
4
 74
0
 40
0
 40
0
 40
0
 40
0
 40
1
 40
1
 40
1
 40
1
 10
75.318819
 20
75.204177
 30
0.0
 10
76.093897
 20
74.001462
 30
0.0
 10
76.671694
 20
62.185572
 30
0.0
 10
76.017660
 20
60.912968
 30
0.0
  0
LINE
  5
143
100
AcDbEntity
  8
Layer_1
 62
7
100
AcDbLine
 10
76.017660
 20
60.912968
 30
0.0
 11
76.017660
 21
60.912968
 31
0.0
  0
ENDSEC
  0
SECTION
  2
OBJECTS
  0
DICTIONARY
  5
C
330
0
100
AcDbDictionary
  3
ACAD_GROUP
350
D
  3
ACAD_MLINESTYLE
350
17
  0
DICTIONARY
  5
D
330
C
100
AcDbDictionary
  0
DICTIONARY
  5
1A
330
C
100
AcDbDictionary
  0
DICTIONARY
  5
17
330
C
100
AcDbDictionary
  3
STANDARD
350
18
  0
DICTIONARY
  5
19
330
C
100
AcDbDictionary
  0
ENDSEC
  0
EOF
