  0
SECTION
  2
HEADER
  9
$ANGBASE
  50
0.0
  9
$ANGDIR
  70
1
  9
$MEASUREMENT
  70
1
  0
ENDSEC
  0
SECTION
  2
TABLES
  0
TABLE
  2
LTYPE
  70
4
  0
LTYPE
  5
40F
  2
CONTINUOUS
  70
0
  3
Solid line
  72
65
  73
0
  40
0.0
  0
LTYPE
  5
410
  2
DASHDOT
 70
0
  3
Dash Dot ____ _ ____ _
 72
65
 73
4
 40
2.0
 49
1.25
 49
-0.25
 49
0.25
 49
-0.25
  0
LTYPE
  5
411
  2
DASHED
 70
0
  3
Dashed __ __ __ __ __
 72
65
 73
2
 40
0.75
 49
0.5
 49
-0.25
  0
LTYPE
  5
43B
  2
DOTTED
 70
0
  3
Dotted .  .  .  .
 72
65
 73
2
 40
0.2
 49
0.0
 49
-0.2
  0
ENDTAB
  0
TABLE
  2
STYLE
  70
4
  0
STYLE
  2
KICAD
  70
0
  40
0
  41
1
  42
1
  50
0
  71
0
  3
isocp.shx
  0
STYLE
  2
KICADB
  70
0
  40
0
  41
1
  42
1
  50
0
  71
0
  3
isocp.shx
  0
STYLE
  2
KICADI
  70
0
  40
0
  41
1
  42
1
  50
15
  71
0
  3
isocp.shx
  0
STYLE
  2
KICADBI
  70
0
  40
0
  41
1
  42
1
  50
15
  71
0
  3
isocp.shx
  0
ENDTAB
  0
TABLE
  2
LAYER
  70
1
  0
LAYER
  2
BLACK
  70
0
  62
7
  6
CONTINUOUS
  0
ENDTAB
  0
ENDSEC
  0
SECTION
  2
ENTITIES
0
LINE
8
BLACK
6
CONTINUOUS
10
126.75
20
-118.36
11
126.75
21
-113.46
0
LINE
8
BLACK
6
CONTINUOUS
10
126.75
20
-113.46
11
125.35
21
-113.46
0
LINE
8
BLACK
6
CONTINUOUS
10
125.35
20
-113.46
11
125.35
21
-118.36
0
LINE
8
BLACK
6
CONTINUOUS
10
125.35
20
-118.36
11
124.45
21
-118.36
0
LINE
8
BLACK
6
CONTINUOUS
10
124.45
20
-118.36
11
124.45
21
-112.96
0
LINE
8
BLACK
6
CONTINUOUS
10
124.45
20
-112.96
11
129.45
21
-112.96
0
LINE
8
BLACK
6
CONTINUOUS
10
129.45
20
-112.96
11
129.45
21
-115.6
0
LINE
8
BLACK
6
CONTINUOUS
10
129.45
20
-115.6
11
131.45
21
-115.6
0
LINE
8
BLACK
6
CONTINUOUS
10
131.45
20
-115.6
11
131.45
21
-112.96
0
LINE
8
BLACK
6
CONTINUOUS
10
131.45
20
-112.96
11
134.15
21
-112.96
0
LINE
8
BLACK
6
CONTINUOUS
10
134.15
20
-112.96
11
134.15
21
-115.6
0
LINE
8
BLACK
6
CONTINUOUS
10
134.15
20
-115.6
11
136.15
21
-115.6
0
LINE
8
BLACK
6
CONTINUOUS
10
136.15
20
-115.6
11
136.15
21
-112.96
0
LINE
8
BLACK
6
CONTINUOUS
10
136.15
20
-112.96
11
138.85
21
-112.96
0
LINE
8
BLACK
6
CONTINUOUS
10
138.85
20
-112.96
11
138.85
21
-117.4
0
LINE
8
BLACK
6
CONTINUOUS
10
138.85
20
-117.4
11
138.35
21
-117.4
0
LINE
8
BLACK
6
CONTINUOUS
10
138.35
20
-117.4
11
138.35
21
-113.46
0
LINE
8
BLACK
6
CONTINUOUS
10
138.35
20
-113.46
11
136.65
21
-113.46
0
LINE
8
BLACK
6
CONTINUOUS
10
136.65
20
-113.46
11
136.65
21
-116.1
0
LINE
8
BLACK
6
CONTINUOUS
10
136.65
20
-116.1
11
133.65
21
-116.1
0
LINE
8
BLACK
6
CONTINUOUS
10
133.65
20
-116.1
11
133.65
21
-113.46
0
LINE
8
BLACK
6
CONTINUOUS
10
133.65
20
-113.46
11
131.95
21
-113.46
0
LINE
8
BLACK
6
CONTINUOUS
10
131.95
20
-113.46
11
131.95
21
-116.1
0
LINE
8
BLACK
6
CONTINUOUS
10
131.95
20
-116.1
11
128.95
21
-116.1
0
LINE
8
BLACK
6
CONTINUOUS
10
128.95
20
-116.1
11
128.95
21
-113.46
0
LINE
8
BLACK
6
CONTINUOUS
10
128.95
20
-113.46
11
127.25
21
-113.46
0
LINE
8
BLACK
6
CONTINUOUS
10
127.25
20
-113.46
11
127.25
21
-118.36
0
LINE
8
BLACK
6
CONTINUOUS
10
127.25
20
-118.36
11
126.75
21
-118.36
  0
ENDSEC
  0
EOF
