  0
SECTION
  2
HEADER
  9
$ACADVER
  1
AC1009
  0
ENDSEC
  0
SECTION
  2
ENTITIES
  0
POLYLINE
  8
VACUUM
 66
1
 39
0
 10
0.000000
 20
0.000000
 30
0.000000
 70
1
  0
VERTEX
  8
VACUUM
 39
0
 10
0.000000
 20
-4.549000
 30
0.000000
 70
0
 42
0
  0
VERTEX
  8
VACUUM
 39
0
 10
8.943760
 20
-4.549000
 30
0.000000
 70
0
 42
0
  0
VERTEX
  8
VACUUM
 39
0
 10
8.943760
 20
3.579600
 30
0.000000
 70
0
 42
0
  0
VERTEX
  8
VACUUM
 39
0
 10
0.000000
 20
3.579600
 30
0.000000
 70
0
 42
0
  0
SEQEND
  8
VACUUM
  0
POLYLINE
  8
I-TERA
 66
1
 39
0
 10
0.000000
 20
0.000000
 30
0.000000
 70
1
  0
VERTEX
  8
I-TERA
 39
0
 10
0.000000
 20
-4.549000
 30
0.000000
 70
0
 42
0
  0
VERTEX
  8
I-TERA
 39
0
 10
8.943760
 20
-4.549000
 30
0.000000
 70
0
 42
0
  0
VERTEX
  8
I-TERA
 39
0
 10
8.943760
 20
3.579600
 30
0.000000
 70
0
 42
0
  0
VERTEX
  8
I-TERA
 39
0
 10
0.000000
 20
3.579600
 30
0.000000
 70
0
 42
0
  0
SEQEND
  8
I-TERA
  0
POLYLINE
  8
PEC
 66
1
 39
0
 10
0.000000
 20
0.000000
 30
0.000000
 70
1
  0
VERTEX
  8
PEC
 39
0
 10
0.000000
 20
-0.298300
 30
0.000000
 70
0
 42
0
  0
VERTEX
  8
PEC
 39
0
 10
2.000000
 20
-0.298300
 30
0.000000
 70
0
 42
0
  0
VERTEX
  8
PEC
 39
0
 10
2.000000
 20
0.298300
 30
0.000000
 70
0
 42
0
  0
VERTEX
  8
PEC
 39
0
 10
0.000000
 20
0.298300
 30
0.000000
 70
0
 42
0
  0
SEQEND
  8
PEC
  0
POLYLINE
  8
PEC
 66
1
 39
0
 10
0.000000
 20
0.000000
 30
0.000000
 70
1
  0
VERTEX
  8
PEC
 39
0
 10
2.000000
 20
-0.298300
 30
0.000000
 70
0
 42
0
  0
VERTEX
  8
PEC
 39
0
 10
2.150000
 20
-0.298300
 30
0.000000
 70
0
 42
0
  0
VERTEX
  8
PEC
 39
0
 10
2.150000
 20
0.298300
 30
0.000000
 70
0
 42
0
  0
VERTEX
  8
PEC
 39
0
 10
2.000000
 20
0.298300
 30
0.000000
 70
0
 42
0
  0
SEQEND
  8
PEC
  0
POLYLINE
  8
PEC
 66
1
 39
0
 10
0.000000
 20
0.000000
 30
0.000000
 70
1
  0
VERTEX
  8
PEC
 39
0
 10
2.000000
 20
-2.668870
 30
0.000000
 70
0
 42
0
  0
VERTEX
  8
PEC
 39
0
 10
2.150000
 20
-2.668870
 30
0.000000
 70
0
 42
0
  0
VERTEX
  8
PEC
 39
0
 10
2.150000
 20
-0.298300
 30
0.000000
 70
0
 42
0
  0
VERTEX
  8
PEC
 39
0
 10
2.000000
 20
-0.298300
 30
0.000000
 70
0
 42
0
  0
SEQEND
  8
PEC
  0
POLYLINE
  8
PEC
 66
1
 39
0
 10
0.000000
 20
0.000000
 30
0.000000
 70
1
  0
VERTEX
  8
PEC
 39
0
 10
2.150000
 20
-0.298300
 30
0.000000
 70
0
 42
0
  0
VERTEX
  8
PEC
 39
0
 10
4.396880
 20
-0.298300
 30
0.000000
 70
0
 42
0
  0
VERTEX
  8
PEC
 39
0
 10
4.396880
 20
0.298300
 30
0.000000
 70
0
 42
0
  0
VERTEX
  8
PEC
 39
0
 10
2.150000
 20
0.298300
 30
0.000000
 70
0
 42
0
  0
SEQEND
  8
PEC
  0
POLYLINE
  8
PEC
 66
1
 39
0
 10
0.000000
 20
0.000000
 30
0.000000
 70
1
  0
VERTEX
  8
PEC
 39
0
 10
4.396880
 20
-0.298300
 30
0.000000
 70
0
 42
0
  0
VERTEX
  8
PEC
 39
0
 10
4.546880
 20
-0.298300
 30
0.000000
 70
0
 42
0
  0
VERTEX
  8
PEC
 39
0
 10
4.546880
 20
0.298300
 30
0.000000
 70
0
 42
0
  0
VERTEX
  8
PEC
 39
0
 10
4.396880
 20
0.298300
 30
0.000000
 70
0
 42
0
  0
SEQEND
  8
PEC
  0
POLYLINE
  8
PEC
 66
1
 39
0
 10
0.000000
 20
0.000000
 30
0.000000
 70
1
  0
VERTEX
  8
PEC
 39
0
 10
4.396880
 20
-2.668870
 30
0.000000
 70
0
 42
0
  0
VERTEX
  8
PEC
 39
0
 10
4.546880
 20
-2.668870
 30
0.000000
 70
0
 42
0
  0
VERTEX
  8
PEC
 39
0
 10
4.546880
 20
-0.298300
 30
0.000000
 70
0
 42
0
  0
VERTEX
  8
PEC
 39
0
 10
4.396880
 20
-0.298300
 30
0.000000
 70
0
 42
0
  0
SEQEND
  8
PEC
  0
POLYLINE
  8
PEC
 66
1
 39
0
 10
0.000000
 20
0.000000
 30
0.000000
 70
1
  0
VERTEX
  8
PEC
 39
0
 10
4.546880
 20
-0.298300
 30
0.000000
 70
0
 42
0
  0
VERTEX
  8
PEC
 39
0
 10
6.793760
 20
-0.298300
 30
0.000000
 70
0
 42
0
  0
VERTEX
  8
PEC
 39
0
 10
6.793760
 20
0.298300
 30
0.000000
 70
0
 42
0
  0
VERTEX
  8
PEC
 39
0
 10
4.546880
 20
0.298300
 30
0.000000
 70
0
 42
0
  0
SEQEND
  8
PEC
  0
POLYLINE
  8
PEC
 66
1
 39
0
 10
0.000000
 20
0.000000
 30
0.000000
 70
1
  0
VERTEX
  8
PEC
 39
0
 10
6.793760
 20
-0.298300
 30
0.000000
 70
0
 42
0
  0
VERTEX
  8
PEC
 39
0
 10
6.943760
 20
-0.298300
 30
0.000000
 70
0
 42
0
  0
VERTEX
  8
PEC
 39
0
 10
6.943760
 20
0.298300
 30
0.000000
 70
0
 42
0
  0
VERTEX
  8
PEC
 39
0
 10
6.793760
 20
0.298300
 30
0.000000
 70
0
 42
0
  0
SEQEND
  8
PEC
  0
POLYLINE
  8
PEC
 66
1
 39
0
 10
0.000000
 20
0.000000
 30
0.000000
 70
1
  0
VERTEX
  8
PEC
 39
0
 10
6.793760
 20
-2.668870
 30
0.000000
 70
0
 42
0
  0
VERTEX
  8
PEC
 39
0
 10
6.943760
 20
-2.668870
 30
0.000000
 70
0
 42
0
  0
VERTEX
  8
PEC
 39
0
 10
6.943760
 20
-0.298300
 30
0.000000
 70
0
 42
0
  0
VERTEX
  8
PEC
 39
0
 10
6.793760
 20
-0.298300
 30
0.000000
 70
0
 42
0
  0
SEQEND
  8
PEC
  0
POLYLINE
  8
PEC
 66
1
 39
0
 10
0.000000
 20
0.000000
 30
0.000000
 70
1
  0
VERTEX
  8
PEC
 39
0
 10
6.943760
 20
-0.298300
 30
0.000000
 70
0
 42
0
  0
VERTEX
  8
PEC
 39
0
 10
8.943760
 20
-0.298300
 30
0.000000
 70
0
 42
0
  0
VERTEX
  8
PEC
 39
0
 10
8.943760
 20
0.298300
 30
0.000000
 70
0
 42
0
  0
VERTEX
  8
PEC
 39
0
 10
6.943760
 20
0.298300
 30
0.000000
 70
0
 42
0
  0
SEQEND
  8
PEC
  0
ENDSEC
  0
EOF
