  0
SECTION
  2
HEADER
  9
$ANGBASE
  50
0.0
  9
$ANGDIR
  70
1
  9
$MEASUREMENT
  70
0
  0
ENDSEC
  0
SECTION
  2
TABLES
  0
TABLE
  2
LTYPE
  70
4
  0
LTYPE
  5
40F
  2
CONTINUOUS
  70
0
  3
Solid line
  72
65
  73
0
  40
0.0
  0
LTYPE
  5
410
  2
DASHDOT
 70
0
  3
Dash Dot ____ _ ____ _
 72
65
 73
4
 40
2.0
 49
1.25
 49
-0.25
 49
0.25
 49
-0.25
  0
LTYPE
  5
411
  2
DASHED
 70
0
  3
Dashed __ __ __ __ __
 72
65
 73
2
 40
0.75
 49
0.5
 49
-0.25
  0
LTYPE
  5
43B
  2
DOTTED
 70
0
  3
Dotted .  .  .  .
 72
65
 73
2
 40
0.2
 49
0.0
 49
-0.2
  0
ENDTAB
  0
TABLE
  2
STYLE
  70
4
  0
STYLE
  2
KICAD
  70
0
  40
0
  41
1
  42
1
  50
0
  71
0
  3
isocp.shx
  0
STYLE
  2
KICADB
  70
0
  40
0
  41
1
  42
1
  50
0
  71
0
  3
isocp.shx
  0
STYLE
  2
KICADI
  70
0
  40
0
  41
1
  42
1
  50
15
  71
0
  3
isocp.shx
  0
STYLE
  2
KICADBI
  70
0
  40
0
  41
1
  42
1
  50
15
  71
0
  3
isocp.shx
  0
ENDTAB
  0
TABLE
  2
LAYER
  70
1
  0
LAYER
  2
BLACK
  70
0
  62
7
  6
CONTINUOUS
  0
ENDTAB
  0
ENDSEC
  0
SECTION
  2
ENTITIES
0
LINE
8
BLACK
6
CONTINUOUS
10
-7.49252
20
-25.6557
11
-7.49223
21
-25.6564
0
LINE
8
BLACK
6
CONTINUOUS
10
-7.49223
20
-25.6564
11
-7.49252
21
-25.6571
0
LINE
8
BLACK
6
CONTINUOUS
10
-7.49252
20
-25.6571
11
-7.49322
21
-25.6574
0
LINE
8
BLACK
6
CONTINUOUS
10
-7.49322
20
-25.6574
11
-7.49391
21
-25.6571
0
LINE
8
BLACK
6
CONTINUOUS
10
-7.49391
20
-25.6571
11
-7.4942
21
-25.6564
0
LINE
8
BLACK
6
CONTINUOUS
10
-7.4942
20
-25.6564
11
-7.49391
21
-25.6557
0
LINE
8
BLACK
6
CONTINUOUS
10
-7.49391
20
-25.6557
11
-7.49322
21
-25.6555
0
LINE
8
BLACK
6
CONTINUOUS
10
-7.49322
20
-25.6555
11
-7.49252
21
-25.6557
0
LINE
8
BLACK
6
CONTINUOUS
10
18.7512
20
17.2723
11
18.7575
21
17.2707
0
LINE
8
BLACK
6
CONTINUOUS
10
18.7575
20
17.2707
11
18.7636
21
17.2681
0
LINE
8
BLACK
6
CONTINUOUS
10
18.7636
20
17.2681
11
18.7636
21
17.2681
0
LINE
8
BLACK
6
CONTINUOUS
10
18.7636
20
17.2681
11
18.7636
21
17.2681
0
LINE
8
BLACK
6
CONTINUOUS
10
18.7636
20
17.2681
11
18.7636
21
17.2681
0
LINE
8
BLACK
6
CONTINUOUS
10
18.7636
20
17.2681
11
18.8721
21
17.2104
0
LINE
8
BLACK
6
CONTINUOUS
10
18.8721
20
17.2104
11
18.8721
21
17.2104
0
LINE
8
BLACK
6
CONTINUOUS
10
18.8721
20
17.2104
11
18.8721
21
17.2104
0
LINE
8
BLACK
6
CONTINUOUS
10
18.8721
20
17.2104
11
18.8721
21
17.2104
0
LINE
8
BLACK
6
CONTINUOUS
10
18.8721
20
17.2104
11
18.8722
21
17.2103
0
LINE
8
BLACK
6
CONTINUOUS
10
18.8722
20
17.2103
11
18.8723
21
17.2102
0
LINE
8
BLACK
6
CONTINUOUS
10
18.8723
20
17.2102
11
18.8724
21
17.2101
0
LINE
8
BLACK
6
CONTINUOUS
10
18.8724
20
17.2101
11
18.8778
21
17.2078
0
LINE
8
BLACK
6
CONTINUOUS
10
18.8778
20
17.2078
11
18.8839
21
17.2063
0
LINE
8
BLACK
6
CONTINUOUS
10
18.8839
20
17.2063
11
18.8899
21
17.2058
0
LINE
8
BLACK
6
CONTINUOUS
10
18.8899
20
17.2058
11
18.8901
21
17.2059
0
LINE
8
BLACK
6
CONTINUOUS
10
18.8901
20
17.2059
11
19.0598
21
17.2059
0
LINE
8
BLACK
6
CONTINUOUS
10
19.0598
20
17.2059
11
19.0598
21
17.2059
0
LINE
8
BLACK
6
CONTINUOUS
10
19.0598
20
17.2059
11
19.0598
21
17.2059
0
LINE
8
BLACK
6
CONTINUOUS
10
19.0598
20
17.2059
11
19.0598
21
17.2059
0
LINE
8
BLACK
6
CONTINUOUS
10
19.0598
20
17.2059
11
19.0639
21
17.2055
0
LINE
8
BLACK
6
CONTINUOUS
10
19.0639
20
17.2055
11
19.0677
21
17.2043
0
LINE
8
BLACK
6
CONTINUOUS
10
19.0677
20
17.2043
11
19.0713
21
17.2024
0
LINE
8
BLACK
6
CONTINUOUS
10
19.0713
20
17.2024
11
19.0744
21
17.1998
0
LINE
8
BLACK
6
CONTINUOUS
10
19.0744
20
17.1998
11
19.0744
21
17.1998
0
LINE
8
BLACK
6
CONTINUOUS
10
19.0744
20
17.1998
11
19.0744
21
17.1998
0
LINE
8
BLACK
6
CONTINUOUS
10
19.0744
20
17.1998
11
19.0744
21
17.1998
0
LINE
8
BLACK
6
CONTINUOUS
10
19.0744
20
17.1998
11
19.1811
21
17.0933
0
LINE
8
BLACK
6
CONTINUOUS
10
19.1811
20
17.0933
11
19.1811
21
17.0933
0
LINE
8
BLACK
6
CONTINUOUS
10
19.1811
20
17.0933
11
19.1811
21
17.0933
0
LINE
8
BLACK
6
CONTINUOUS
10
19.1811
20
17.0933
11
19.1811
21
17.0933
0
LINE
8
BLACK
6
CONTINUOUS
10
19.1811
20
17.0933
11
19.1837
21
17.0901
0
LINE
8
BLACK
6
CONTINUOUS
10
19.1837
20
17.0901
11
19.1856
21
17.0865
0
LINE
8
BLACK
6
CONTINUOUS
10
19.1856
20
17.0865
11
19.1868
21
17.0827
0
LINE
8
BLACK
6
CONTINUOUS
10
19.1868
20
17.0827
11
19.1872
21
17.0786
0
LINE
8
BLACK
6
CONTINUOUS
10
19.1872
20
17.0786
11
19.1872
21
17.0786
0
LINE
8
BLACK
6
CONTINUOUS
10
19.1872
20
17.0786
11
19.1872
21
16.2698
0
LINE
8
BLACK
6
CONTINUOUS
10
19.1872
20
16.2698
11
19.1871
21
16.2696
0
LINE
8
BLACK
6
CONTINUOUS
10
19.1871
20
16.2696
11
19.1871
21
16.2694
0
LINE
8
BLACK
6
CONTINUOUS
10
19.1871
20
16.2694
11
19.1871
21
16.2694
0
LINE
8
BLACK
6
CONTINUOUS
10
19.1871
20
16.2694
11
19.1846
21
16.2654
0
LINE
8
BLACK
6
CONTINUOUS
10
19.1846
20
16.2654
11
19.1813
21
16.262
0
LINE
8
BLACK
6
CONTINUOUS
10
19.1813
20
16.262
11
19.1774
21
16.2595
0
LINE
8
BLACK
6
CONTINUOUS
10
19.1774
20
16.2595
11
19.1729
21
16.258
0
LINE
8
BLACK
6
CONTINUOUS
10
19.1729
20
16.258
11
19.1683
21
16.2574
0
LINE
8
BLACK
6
CONTINUOUS
10
19.1683
20
16.2574
11
19.1683
21
16.2574
0
LINE
8
BLACK
6
CONTINUOUS
10
19.1683
20
16.2574
11
19.1411
21
16.2563
0
LINE
8
BLACK
6
CONTINUOUS
10
19.1411
20
16.2563
11
19.1079
21
16.2364
0
LINE
8
BLACK
6
CONTINUOUS
10
19.1079
20
16.2364
11
19.1079
21
16.2364
0
LINE
8
BLACK
6
CONTINUOUS
10
19.1079
20
16.2364
11
19.1079
21
16.2364
0
LINE
8
BLACK
6
CONTINUOUS
10
19.1079
20
16.2364
11
19.1079
21
16.2364
0
LINE
8
BLACK
6
CONTINUOUS
10
19.1079
20
16.2364
11
19.1077
21
16.2363
0
LINE
8
BLACK
6
CONTINUOUS
10
19.1077
20
16.2363
11
19.106
21
16.2349
0
LINE
8
BLACK
6
CONTINUOUS
10
19.106
20
16.2349
11
19.1048
21
16.2328
0
LINE
8
BLACK
6
CONTINUOUS
10
19.1048
20
16.2328
11
19.1044
21
16.2306
0
LINE
8
BLACK
6
CONTINUOUS
10
19.1044
20
16.2306
11
19.1045
21
16.2304
0
LINE
8
BLACK
6
CONTINUOUS
10
19.1045
20
16.2304
11
19.1045
21
15.9635
0
LINE
8
BLACK
6
CONTINUOUS
10
19.1045
20
15.9635
11
19.1044
21
15.9633
0
LINE
8
BLACK
6
CONTINUOUS
10
19.1044
20
15.9633
11
19.1048
21
15.9611
0
LINE
8
BLACK
6
CONTINUOUS
10
19.1048
20
15.9611
11
19.1061
21
15.959
0
LINE
8
BLACK
6
CONTINUOUS
10
19.1061
20
15.959
11
19.1078
21
15.9575
0
LINE
8
BLACK
6
CONTINUOUS
10
19.1078
20
15.9575
11
19.108
21
15.9575
0
LINE
8
BLACK
6
CONTINUOUS
10
19.108
20
15.9575
11
19.108
21
15.9575
0
LINE
8
BLACK
6
CONTINUOUS
10
19.108
20
15.9575
11
19.108
21
15.9575
0
LINE
8
BLACK
6
CONTINUOUS
10
19.108
20
15.9575
11
19.108
21
15.9575
0
LINE
8
BLACK
6
CONTINUOUS
10
19.108
20
15.9575
11
19.1451
21
15.9365
0
LINE
8
BLACK
6
CONTINUOUS
10
19.1451
20
15.9365
11
19.1679
21
15.9365
0
LINE
8
BLACK
6
CONTINUOUS
10
19.1679
20
15.9365
11
19.1679
21
15.9365
0
LINE
8
BLACK
6
CONTINUOUS
10
19.1679
20
15.9365
11
19.1727
21
15.9361
0
LINE
8
BLACK
6
CONTINUOUS
10
19.1727
20
15.9361
11
19.1772
21
15.9345
0
LINE
8
BLACK
6
CONTINUOUS
10
19.1772
20
15.9345
11
19.1813
21
15.9319
0
LINE
8
BLACK
6
CONTINUOUS
10
19.1813
20
15.9319
11
19.1846
21
15.9285
0
LINE
8
BLACK
6
CONTINUOUS
10
19.1846
20
15.9285
11
19.1871
21
15.9244
0
LINE
8
BLACK
6
CONTINUOUS
10
19.1871
20
15.9244
11
19.1871
21
15.9244
0
LINE
8
BLACK
6
CONTINUOUS
10
19.1871
20
15.9244
11
19.1871
21
15.9244
0
LINE
8
BLACK
6
CONTINUOUS
10
19.1871
20
15.9244
11
19.1871
21
15.9242
0
LINE
8
BLACK
6
CONTINUOUS
10
19.1871
20
15.9242
11
19.1872
21
15.924
0
LINE
8
BLACK
6
CONTINUOUS
10
19.1872
20
15.924
11
19.1872
21
14.8255
0
LINE
8
BLACK
6
CONTINUOUS
10
19.1872
20
14.8255
11
19.1872
21
14.8255
0
LINE
8
BLACK
6
CONTINUOUS
10
19.1872
20
14.8255
11
19.1872
21
14.8255
0
LINE
8
BLACK
6
CONTINUOUS
10
19.1872
20
14.8255
11
19.1872
21
14.8255
0
LINE
8
BLACK
6
CONTINUOUS
10
19.1872
20
14.8255
11
19.1867
21
14.8209
0
LINE
8
BLACK
6
CONTINUOUS
10
19.1867
20
14.8209
11
19.1851
21
14.8165
0
LINE
8
BLACK
6
CONTINUOUS
10
19.1851
20
14.8165
11
19.1827
21
14.8126
0
LINE
8
BLACK
6
CONTINUOUS
10
19.1827
20
14.8126
11
19.1794
21
14.8093
0
LINE
8
BLACK
6
CONTINUOUS
10
19.1794
20
14.8093
11
19.1755
21
14.8068
0
LINE
8
BLACK
6
CONTINUOUS
10
19.1755
20
14.8068
11
19.1711
21
14.8053
0
LINE
8
BLACK
6
CONTINUOUS
10
19.1711
20
14.8053
11
19.1665
21
14.8048
0
LINE
8
BLACK
6
CONTINUOUS
10
19.1665
20
14.8048
11
19.1665
21
14.8048
0
LINE
8
BLACK
6
CONTINUOUS
10
19.1665
20
14.8048
11
19.1665
21
14.8048
0
LINE
8
BLACK
6
CONTINUOUS
10
19.1665
20
14.8048
11
19.1665
21
14.8048
0
LINE
8
BLACK
6
CONTINUOUS
10
19.1665
20
14.8048
11
16.8964
21
14.8048
0
LINE
8
BLACK
6
CONTINUOUS
10
16.8964
20
14.8048
11
16.8963
21
14.8048
0
LINE
8
BLACK
6
CONTINUOUS
10
16.8963
20
14.8048
11
16.8962
21
14.8048
0
LINE
8
BLACK
6
CONTINUOUS
10
16.8962
20
14.8048
11
16.8959
21
14.805
0
LINE
8
BLACK
6
CONTINUOUS
10
16.8959
20
14.805
11
16.8957
21
14.8051
0
LINE
8
BLACK
6
CONTINUOUS
10
16.8957
20
14.8051
11
16.8956
21
14.8052
0
LINE
8
BLACK
6
CONTINUOUS
10
16.8956
20
14.8052
11
16.8956
21
14.8052
0
LINE
8
BLACK
6
CONTINUOUS
10
16.8956
20
14.8052
11
16.8955
21
14.8055
0
LINE
8
BLACK
6
CONTINUOUS
10
16.8955
20
14.8055
11
16.8954
21
14.8057
0
LINE
8
BLACK
6
CONTINUOUS
10
16.8954
20
14.8057
11
16.8899
21
14.8132
0
LINE
8
BLACK
6
CONTINUOUS
10
16.8899
20
14.8132
11
16.8832
21
14.8202
0
LINE
8
BLACK
6
CONTINUOUS
10
16.8832
20
14.8202
11
16.8756
21
14.8262
0
LINE
8
BLACK
6
CONTINUOUS
10
16.8756
20
14.8262
11
16.8672
21
14.8311
0
LINE
8
BLACK
6
CONTINUOUS
10
16.8672
20
14.8311
11
16.8582
21
14.8349
0
LINE
8
BLACK
6
CONTINUOUS
10
16.8582
20
14.8349
11
16.8489
21
14.8375
0
LINE
8
BLACK
6
CONTINUOUS
10
16.8489
20
14.8375
11
16.8392
21
14.8388
0
LINE
8
BLACK
6
CONTINUOUS
10
16.8392
20
14.8388
11
16.8295
21
14.8388
0
LINE
8
BLACK
6
CONTINUOUS
10
16.8295
20
14.8388
11
16.8199
21
14.8375
0
LINE
8
BLACK
6
CONTINUOUS
10
16.8199
20
14.8375
11
16.8105
21
14.8349
0
LINE
8
BLACK
6
CONTINUOUS
10
16.8105
20
14.8349
11
16.8015
21
14.8311
0
LINE
8
BLACK
6
CONTINUOUS
10
16.8015
20
14.8311
11
16.7932
21
14.8262
0
LINE
8
BLACK
6
CONTINUOUS
10
16.7932
20
14.8262
11
16.7856
21
14.8202
0
LINE
8
BLACK
6
CONTINUOUS
10
16.7856
20
14.8202
11
16.7788
21
14.8132
0
LINE
8
BLACK
6
CONTINUOUS
10
16.7788
20
14.8132
11
16.7733
21
14.8057
0
LINE
8
BLACK
6
CONTINUOUS
10
16.7733
20
14.8057
11
16.7732
21
14.8056
0
LINE
8
BLACK
6
CONTINUOUS
10
16.7732
20
14.8056
11
16.7732
21
14.8053
0
LINE
8
BLACK
6
CONTINUOUS
10
16.7732
20
14.8053
11
16.7732
21
14.8053
0
LINE
8
BLACK
6
CONTINUOUS
10
16.7732
20
14.8053
11
16.7732
21
14.8052
0
LINE
8
BLACK
6
CONTINUOUS
10
16.7732
20
14.8052
11
16.7731
21
14.8052
0
LINE
8
BLACK
6
CONTINUOUS
10
16.7731
20
14.8052
11
16.773
21
14.8051
0
LINE
8
BLACK
6
CONTINUOUS
10
16.773
20
14.8051
11
16.7728
21
14.805
0
LINE
8
BLACK
6
CONTINUOUS
10
16.7728
20
14.805
11
16.7727
21
14.8048
0
LINE
8
BLACK
6
CONTINUOUS
10
16.7727
20
14.8048
11
16.7726
21
14.8048
0
LINE
8
BLACK
6
CONTINUOUS
10
16.7726
20
14.8048
11
16.7726
21
14.8048
0
LINE
8
BLACK
6
CONTINUOUS
10
16.7726
20
14.8048
11
16.7725
21
14.8048
0
LINE
8
BLACK
6
CONTINUOUS
10
16.7725
20
14.8048
11
16.7724
21
14.8048
0
LINE
8
BLACK
6
CONTINUOUS
10
16.7724
20
14.8048
11
16.4579
21
14.8048
0
LINE
8
BLACK
6
CONTINUOUS
10
16.4579
20
14.8048
11
16.4579
21
14.8048
0
LINE
8
BLACK
6
CONTINUOUS
10
16.4579
20
14.8048
11
16.4579
21
14.8048
0
LINE
8
BLACK
6
CONTINUOUS
10
16.4579
20
14.8048
11
16.4579
21
14.8048
0
LINE
8
BLACK
6
CONTINUOUS
10
16.4579
20
14.8048
11
16.4579
21
14.8048
0
LINE
8
BLACK
6
CONTINUOUS
10
16.4579
20
14.8048
11
16.4423
21
14.8055
0
LINE
8
BLACK
6
CONTINUOUS
10
16.4423
20
14.8055
11
16.4269
21
14.8075
0
LINE
8
BLACK
6
CONTINUOUS
10
16.4269
20
14.8075
11
16.4118
21
14.8109
0
LINE
8
BLACK
6
CONTINUOUS
10
16.4118
20
14.8109
11
16.3969
21
14.8155
0
LINE
8
BLACK
6
CONTINUOUS
10
16.3969
20
14.8155
11
16.3826
21
14.8215
0
LINE
8
BLACK
6
CONTINUOUS
10
16.3826
20
14.8215
11
16.3688
21
14.8287
0
LINE
8
BLACK
6
CONTINUOUS
10
16.3688
20
14.8287
11
16.3557
21
14.837
0
LINE
8
BLACK
6
CONTINUOUS
10
16.3557
20
14.837
11
16.3434
21
14.8465
0
LINE
8
BLACK
6
CONTINUOUS
10
16.3434
20
14.8465
11
16.3319
21
14.857
0
LINE
8
BLACK
6
CONTINUOUS
10
16.3319
20
14.857
11
16.3214
21
14.8684
0
LINE
8
BLACK
6
CONTINUOUS
10
16.3214
20
14.8684
11
16.3119
21
14.8808
0
LINE
8
BLACK
6
CONTINUOUS
10
16.3119
20
14.8808
11
16.3036
21
14.8939
0
LINE
8
BLACK
6
CONTINUOUS
10
16.3036
20
14.8939
11
16.2964
21
14.9076
0
LINE
8
BLACK
6
CONTINUOUS
10
16.2964
20
14.9076
11
16.2905
21
14.922
0
LINE
8
BLACK
6
CONTINUOUS
10
16.2905
20
14.922
11
16.2858
21
14.9368
0
LINE
8
BLACK
6
CONTINUOUS
10
16.2858
20
14.9368
11
16.2824
21
14.952
0
LINE
8
BLACK
6
CONTINUOUS
10
16.2824
20
14.952
11
16.2804
21
14.9674
0
LINE
8
BLACK
6
CONTINUOUS
10
16.2804
20
14.9674
11
16.2797
21
14.9829
0
LINE
8
BLACK
6
CONTINUOUS
10
16.2797
20
14.9829
11
16.2797
21
14.9829
0
LINE
8
BLACK
6
CONTINUOUS
10
16.2797
20
14.9829
11
16.2797
21
14.9829
0
LINE
8
BLACK
6
CONTINUOUS
10
16.2797
20
14.9829
11
16.2797
21
15.3569
0
LINE
8
BLACK
6
CONTINUOUS
10
16.2797
20
15.3569
11
16.2798
21
15.3572
0
LINE
8
BLACK
6
CONTINUOUS
10
16.2798
20
15.3572
11
16.2793
21
15.3614
0
LINE
8
BLACK
6
CONTINUOUS
10
16.2793
20
15.3614
11
16.2778
21
15.3656
0
LINE
8
BLACK
6
CONTINUOUS
10
16.2778
20
15.3656
11
16.2753
21
15.3693
0
LINE
8
BLACK
6
CONTINUOUS
10
16.2753
20
15.3693
11
16.272
21
15.3723
0
LINE
8
BLACK
6
CONTINUOUS
10
16.272
20
15.3723
11
16.2684
21
15.3742
0
LINE
8
BLACK
6
CONTINUOUS
10
16.2684
20
15.3742
11
16.2684
21
15.3742
0
LINE
8
BLACK
6
CONTINUOUS
10
16.2684
20
15.3742
11
16.2682
21
15.3743
0
LINE
8
BLACK
6
CONTINUOUS
10
16.2682
20
15.3743
11
16.2682
21
15.3743
0
LINE
8
BLACK
6
CONTINUOUS
10
16.2682
20
15.3743
11
16.268
21
15.3743
0
LINE
8
BLACK
6
CONTINUOUS
10
16.268
20
15.3743
11
16.268
21
15.3743
0
LINE
8
BLACK
6
CONTINUOUS
10
16.268
20
15.3743
11
16.268
21
15.3743
0
LINE
8
BLACK
6
CONTINUOUS
10
16.268
20
15.3743
11
16.268
21
15.3743
0
LINE
8
BLACK
6
CONTINUOUS
10
16.268
20
15.3743
11
16.268
21
15.3743
0
LINE
8
BLACK
6
CONTINUOUS
10
16.268
20
15.3743
11
16.268
21
15.3743
0
LINE
8
BLACK
6
CONTINUOUS
10
16.268
20
15.3743
11
16.268
21
15.3743
0
LINE
8
BLACK
6
CONTINUOUS
10
16.268
20
15.3743
11
16.268
21
15.3743
0
LINE
8
BLACK
6
CONTINUOUS
10
16.268
20
15.3743
11
16.268
21
15.3743
0
LINE
8
BLACK
6
CONTINUOUS
10
16.268
20
15.3743
11
16.2648
21
15.3762
0
LINE
8
BLACK
6
CONTINUOUS
10
16.2648
20
15.3762
11
16.2622
21
15.379
0
LINE
8
BLACK
6
CONTINUOUS
10
16.2622
20
15.379
11
16.2606
21
15.3824
0
LINE
8
BLACK
6
CONTINUOUS
10
16.2606
20
15.3824
11
16.26
21
15.3861
0
LINE
8
BLACK
6
CONTINUOUS
10
16.26
20
15.3861
11
16.26
21
15.3861
0
LINE
8
BLACK
6
CONTINUOUS
10
16.26
20
15.3861
11
16.26
21
15.3861
0
LINE
8
BLACK
6
CONTINUOUS
10
16.26
20
15.3861
11
16.26
21
15.3861
0
LINE
8
BLACK
6
CONTINUOUS
10
16.26
20
15.3861
11
16.26
21
15.4695
0
LINE
8
BLACK
6
CONTINUOUS
10
16.26
20
15.4695
11
16.26
21
15.4695
0
LINE
8
BLACK
6
CONTINUOUS
10
16.26
20
15.4695
11
16.26
21
15.4695
0
LINE
8
BLACK
6
CONTINUOUS
10
16.26
20
15.4695
11
16.2606
21
15.4732
0
LINE
8
BLACK
6
CONTINUOUS
10
16.2606
20
15.4732
11
16.2622
21
15.4766
0
LINE
8
BLACK
6
CONTINUOUS
10
16.2622
20
15.4766
11
16.2648
21
15.4794
0
LINE
8
BLACK
6
CONTINUOUS
10
16.2648
20
15.4794
11
16.268
21
15.4813
0
LINE
8
BLACK
6
CONTINUOUS
10
16.268
20
15.4813
11
16.268
21
15.4813
0
LINE
8
BLACK
6
CONTINUOUS
10
16.268
20
15.4813
11
16.268
21
15.4813
0
LINE
8
BLACK
6
CONTINUOUS
10
16.268
20
15.4813
11
16.268
21
15.4813
0
LINE
8
BLACK
6
CONTINUOUS
10
16.268
20
15.4813
11
16.268
21
15.4813
0
LINE
8
BLACK
6
CONTINUOUS
10
16.268
20
15.4813
11
16.268
21
15.4813
0
LINE
8
BLACK
6
CONTINUOUS
10
16.268
20
15.4813
11
16.268
21
15.4813
0
LINE
8
BLACK
6
CONTINUOUS
10
16.268
20
15.4813
11
16.268
21
15.4813
0
LINE
8
BLACK
6
CONTINUOUS
10
16.268
20
15.4813
11
16.268
21
15.4813
0
LINE
8
BLACK
6
CONTINUOUS
10
16.268
20
15.4813
11
16.2682
21
15.4813
0
LINE
8
BLACK
6
CONTINUOUS
10
16.2682
20
15.4813
11
16.2684
21
15.4814
0
LINE
8
BLACK
6
CONTINUOUS
10
16.2684
20
15.4814
11
16.2684
21
15.4814
0
LINE
8
BLACK
6
CONTINUOUS
10
16.2684
20
15.4814
11
16.272
21
15.4834
0
LINE
8
BLACK
6
CONTINUOUS
10
16.272
20
15.4834
11
16.2753
21
15.4864
0
LINE
8
BLACK
6
CONTINUOUS
10
16.2753
20
15.4864
11
16.2778
21
15.4901
0
LINE
8
BLACK
6
CONTINUOUS
10
16.2778
20
15.4901
11
16.2793
21
15.4943
0
LINE
8
BLACK
6
CONTINUOUS
10
16.2793
20
15.4943
11
16.2798
21
15.4984
0
LINE
8
BLACK
6
CONTINUOUS
10
16.2798
20
15.4984
11
16.2797
21
15.4987
0
LINE
8
BLACK
6
CONTINUOUS
10
16.2797
20
15.4987
11
16.2797
21
15.4987
0
LINE
8
BLACK
6
CONTINUOUS
10
16.2797
20
15.4987
11
16.2797
21
15.4987
0
LINE
8
BLACK
6
CONTINUOUS
10
16.2797
20
15.4987
11
16.2797
21
15.4987
0
LINE
8
BLACK
6
CONTINUOUS
10
16.2797
20
15.4987
11
16.2797
21
15.8304
0
LINE
8
BLACK
6
CONTINUOUS
10
16.2797
20
15.8304
11
16.2798
21
15.8306
0
LINE
8
BLACK
6
CONTINUOUS
10
16.2798
20
15.8306
11
16.28
21
15.8311
0
LINE
8
BLACK
6
CONTINUOUS
10
16.28
20
15.8311
11
16.2807
21
15.8314
0
LINE
8
BLACK
6
CONTINUOUS
10
16.2807
20
15.8314
11
16.2807
21
15.8314
0
LINE
8
BLACK
6
CONTINUOUS
10
16.2807
20
15.8314
11
16.2808
21
15.8313
0
LINE
8
BLACK
6
CONTINUOUS
10
16.2808
20
15.8313
11
16.2809
21
15.8313
0
LINE
8
BLACK
6
CONTINUOUS
10
16.2809
20
15.8313
11
16.2846
21
15.8317
0
LINE
8
BLACK
6
CONTINUOUS
10
16.2846
20
15.8317
11
16.2881
21
15.8332
0
LINE
8
BLACK
6
CONTINUOUS
10
16.2881
20
15.8332
11
16.2912
21
15.8356
0
LINE
8
BLACK
6
CONTINUOUS
10
16.2912
20
15.8356
11
16.2936
21
15.8387
0
LINE
8
BLACK
6
CONTINUOUS
10
16.2936
20
15.8387
11
16.2951
21
15.8423
0
LINE
8
BLACK
6
CONTINUOUS
10
16.2951
20
15.8423
11
16.2956
21
15.8459
0
LINE
8
BLACK
6
CONTINUOUS
10
16.2956
20
15.8459
11
16.2955
21
15.8461
0
LINE
8
BLACK
6
CONTINUOUS
10
16.2955
20
15.8461
11
16.2955
21
15.8461
0
LINE
8
BLACK
6
CONTINUOUS
10
16.2955
20
15.8461
11
16.2955
21
15.8461
0
LINE
8
BLACK
6
CONTINUOUS
10
16.2955
20
15.8461
11
16.2955
21
16.0115
0
LINE
8
BLACK
6
CONTINUOUS
10
16.2955
20
16.0115
11
16.2955
21
16.0115
0
LINE
8
BLACK
6
CONTINUOUS
10
16.2955
20
16.0115
11
16.2956
21
16.0117
0
LINE
8
BLACK
6
CONTINUOUS
10
16.2956
20
16.0117
11
16.2951
21
16.0153
0
LINE
8
BLACK
6
CONTINUOUS
10
16.2951
20
16.0153
11
16.2936
21
16.0189
0
LINE
8
BLACK
6
CONTINUOUS
10
16.2936
20
16.0189
11
16.2912
21
16.022
0
LINE
8
BLACK
6
CONTINUOUS
10
16.2912
20
16.022
11
16.2881
21
16.0244
0
LINE
8
BLACK
6
CONTINUOUS
10
16.2881
20
16.0244
11
16.2846
21
16.0259
0
LINE
8
BLACK
6
CONTINUOUS
10
16.2846
20
16.0259
11
16.2809
21
16.0263
0
LINE
8
BLACK
6
CONTINUOUS
10
16.2809
20
16.0263
11
16.2807
21
16.0262
0
LINE
8
BLACK
6
CONTINUOUS
10
16.2807
20
16.0262
11
16.2807
21
16.0262
0
LINE
8
BLACK
6
CONTINUOUS
10
16.2807
20
16.0262
11
16.2807
21
16.0262
0
LINE
8
BLACK
6
CONTINUOUS
10
16.2807
20
16.0262
11
16.2803
21
16.0264
0
LINE
8
BLACK
6
CONTINUOUS
10
16.2803
20
16.0264
11
16.28
21
16.0265
0
LINE
8
BLACK
6
CONTINUOUS
10
16.28
20
16.0265
11
16.28
21
16.0265
0
LINE
8
BLACK
6
CONTINUOUS
10
16.28
20
16.0265
11
16.2799
21
16.0269
0
LINE
8
BLACK
6
CONTINUOUS
10
16.2799
20
16.0269
11
16.2797
21
16.0272
0
LINE
8
BLACK
6
CONTINUOUS
10
16.2797
20
16.0272
11
16.2797
21
16.0272
0
LINE
8
BLACK
6
CONTINUOUS
10
16.2797
20
16.0272
11
16.2797
21
16.0272
0
LINE
8
BLACK
6
CONTINUOUS
10
16.2797
20
16.0272
11
16.2797
21
16.6945
0
LINE
8
BLACK
6
CONTINUOUS
10
16.2797
20
16.6945
11
16.28
21
16.6952
0
LINE
8
BLACK
6
CONTINUOUS
10
16.28
20
16.6952
11
16.2807
21
16.6955
0
LINE
8
BLACK
6
CONTINUOUS
10
16.2807
20
16.6955
11
16.6902
21
16.6955
0
LINE
8
BLACK
6
CONTINUOUS
10
16.6902
20
16.6955
11
16.6904
21
16.6953
0
LINE
8
BLACK
6
CONTINUOUS
10
16.6904
20
16.6953
11
16.695
21
16.6959
0
LINE
8
BLACK
6
CONTINUOUS
10
16.695
20
16.6959
11
16.6996
21
16.6978
0
LINE
8
BLACK
6
CONTINUOUS
10
16.6996
20
16.6978
11
16.7035
21
16.7008
0
LINE
8
BLACK
6
CONTINUOUS
10
16.7035
20
16.7008
11
16.7065
21
16.7047
0
LINE
8
BLACK
6
CONTINUOUS
10
16.7065
20
16.7047
11
16.7084
21
16.7093
0
LINE
8
BLACK
6
CONTINUOUS
10
16.7084
20
16.7093
11
16.709
21
16.7139
0
LINE
8
BLACK
6
CONTINUOUS
10
16.709
20
16.7139
11
16.7089
21
16.714
0
LINE
8
BLACK
6
CONTINUOUS
10
16.7089
20
16.714
11
16.7089
21
16.7142
0
LINE
8
BLACK
6
CONTINUOUS
10
16.7089
20
16.7142
11
16.7089
21
16.7142
0
LINE
8
BLACK
6
CONTINUOUS
10
16.7089
20
16.7142
11
16.7089
21
16.9366
0
LINE
8
BLACK
6
CONTINUOUS
10
16.7089
20
16.9366
11
16.7089
21
16.9366
0
LINE
8
BLACK
6
CONTINUOUS
10
16.7089
20
16.9366
11
16.7089
21
16.9366
0
LINE
8
BLACK
6
CONTINUOUS
10
16.7089
20
16.9366
11
16.7089
21
16.9366
0
LINE
8
BLACK
6
CONTINUOUS
10
16.7089
20
16.9366
11
16.709
21
16.9369
0
LINE
8
BLACK
6
CONTINUOUS
10
16.709
20
16.9369
11
16.7084
21
16.9415
0
LINE
8
BLACK
6
CONTINUOUS
10
16.7084
20
16.9415
11
16.7065
21
16.946
0
LINE
8
BLACK
6
CONTINUOUS
10
16.7065
20
16.946
11
16.7035
21
16.9499
0
LINE
8
BLACK
6
CONTINUOUS
10
16.7035
20
16.9499
11
16.6996
21
16.9529
0
LINE
8
BLACK
6
CONTINUOUS
10
16.6996
20
16.9529
11
16.695
21
16.9548
0
LINE
8
BLACK
6
CONTINUOUS
10
16.695
20
16.9548
11
16.6905
21
16.9554
0
LINE
8
BLACK
6
CONTINUOUS
10
16.6905
20
16.9554
11
16.6905
21
16.9553
0
LINE
8
BLACK
6
CONTINUOUS
10
16.6905
20
16.9553
11
16.6903
21
16.9554
0
LINE
8
BLACK
6
CONTINUOUS
10
16.6903
20
16.9554
11
16.6902
21
16.9553
0
LINE
8
BLACK
6
CONTINUOUS
10
16.6902
20
16.9553
11
16.2807
21
16.9553
0
LINE
8
BLACK
6
CONTINUOUS
10
16.2807
20
16.9553
11
16.28
21
16.9556
0
LINE
8
BLACK
6
CONTINUOUS
10
16.28
20
16.9556
11
16.2797
21
16.9563
0
LINE
8
BLACK
6
CONTINUOUS
10
16.2797
20
16.9563
11
16.2797
21
17.2113
0
LINE
8
BLACK
6
CONTINUOUS
10
16.2797
20
17.2113
11
16.2797
21
17.2113
0
LINE
8
BLACK
6
CONTINUOUS
10
16.2797
20
17.2113
11
16.2804
21
17.2268
0
LINE
8
BLACK
6
CONTINUOUS
10
16.2804
20
17.2268
11
16.2824
21
17.2422
0
LINE
8
BLACK
6
CONTINUOUS
10
16.2824
20
17.2422
11
16.2858
21
17.2574
0
LINE
8
BLACK
6
CONTINUOUS
10
16.2858
20
17.2574
11
16.2905
21
17.2722
0
LINE
8
BLACK
6
CONTINUOUS
10
16.2905
20
17.2722
11
16.2964
21
17.2866
0
LINE
8
BLACK
6
CONTINUOUS
10
16.2964
20
17.2866
11
16.3036
21
17.3004
0
LINE
8
BLACK
6
CONTINUOUS
10
16.3036
20
17.3004
11
16.3119
21
17.3135
0
LINE
8
BLACK
6
CONTINUOUS
10
16.3119
20
17.3135
11
16.3214
21
17.3258
0
LINE
8
BLACK
6
CONTINUOUS
10
16.3214
20
17.3258
11
16.3319
21
17.3372
0
LINE
8
BLACK
6
CONTINUOUS
10
16.3319
20
17.3372
11
16.3434
21
17.3478
0
LINE
8
BLACK
6
CONTINUOUS
10
16.3434
20
17.3478
11
16.3557
21
17.3572
0
LINE
8
BLACK
6
CONTINUOUS
10
16.3557
20
17.3572
11
16.3688
21
17.3656
0
LINE
8
BLACK
6
CONTINUOUS
10
16.3688
20
17.3656
11
16.3826
21
17.3727
0
LINE
8
BLACK
6
CONTINUOUS
10
16.3826
20
17.3727
11
16.3969
21
17.3787
0
LINE
8
BLACK
6
CONTINUOUS
10
16.3969
20
17.3787
11
16.4118
21
17.3834
0
LINE
8
BLACK
6
CONTINUOUS
10
16.4118
20
17.3834
11
16.4269
21
17.3867
0
LINE
8
BLACK
6
CONTINUOUS
10
16.4269
20
17.3867
11
16.4423
21
17.3888
0
LINE
8
BLACK
6
CONTINUOUS
10
16.4423
20
17.3888
11
16.4579
21
17.3894
0
LINE
8
BLACK
6
CONTINUOUS
10
16.4579
20
17.3894
11
16.4579
21
17.3894
0
LINE
8
BLACK
6
CONTINUOUS
10
16.4579
20
17.3894
11
16.4579
21
17.3894
0
LINE
8
BLACK
6
CONTINUOUS
10
16.4579
20
17.3894
11
16.6008
21
17.3894
0
LINE
8
BLACK
6
CONTINUOUS
10
16.6008
20
17.3894
11
16.6009
21
17.3894
0
LINE
8
BLACK
6
CONTINUOUS
10
16.6009
20
17.3894
11
16.6011
21
17.3894
0
LINE
8
BLACK
6
CONTINUOUS
10
16.6011
20
17.3894
11
16.6013
21
17.3892
0
LINE
8
BLACK
6
CONTINUOUS
10
16.6013
20
17.3892
11
16.6015
21
17.3891
0
LINE
8
BLACK
6
CONTINUOUS
10
16.6015
20
17.3891
11
16.6016
21
17.389
0
LINE
8
BLACK
6
CONTINUOUS
10
16.6016
20
17.389
11
16.6017
21
17.3889
0
LINE
8
BLACK
6
CONTINUOUS
10
16.6017
20
17.3889
11
16.6017
21
17.3887
0
LINE
8
BLACK
6
CONTINUOUS
10
16.6017
20
17.3887
11
16.6018
21
17.3884
0
LINE
8
BLACK
6
CONTINUOUS
10
16.6018
20
17.3884
11
16.6072
21
17.3805
0
LINE
8
BLACK
6
CONTINUOUS
10
16.6072
20
17.3805
11
16.6138
21
17.3729
0
LINE
8
BLACK
6
CONTINUOUS
10
16.6138
20
17.3729
11
16.6214
21
17.3663
0
LINE
8
BLACK
6
CONTINUOUS
10
16.6214
20
17.3663
11
16.6298
21
17.3607
0
LINE
8
BLACK
6
CONTINUOUS
10
16.6298
20
17.3607
11
16.6389
21
17.3562
0
LINE
8
BLACK
6
CONTINUOUS
10
16.6389
20
17.3562
11
16.6485
21
17.353
0
LINE
8
BLACK
6
CONTINUOUS
10
16.6485
20
17.353
11
16.6584
21
17.351
0
LINE
8
BLACK
6
CONTINUOUS
10
16.6584
20
17.351
11
16.6684
21
17.3504
0
LINE
8
BLACK
6
CONTINUOUS
10
16.6684
20
17.3504
11
16.6785
21
17.351
0
LINE
8
BLACK
6
CONTINUOUS
10
16.6785
20
17.351
11
16.6884
21
17.353
0
LINE
8
BLACK
6
CONTINUOUS
10
16.6884
20
17.353
11
16.698
21
17.3562
0
LINE
8
BLACK
6
CONTINUOUS
10
16.698
20
17.3562
11
16.707
21
17.3607
0
LINE
8
BLACK
6
CONTINUOUS
10
16.707
20
17.3607
11
16.7154
21
17.3663
0
LINE
8
BLACK
6
CONTINUOUS
10
16.7154
20
17.3663
11
16.723
21
17.3729
0
LINE
8
BLACK
6
CONTINUOUS
10
16.723
20
17.3729
11
16.7297
21
17.3805
0
LINE
8
BLACK
6
CONTINUOUS
10
16.7297
20
17.3805
11
16.7351
21
17.3884
0
LINE
8
BLACK
6
CONTINUOUS
10
16.7351
20
17.3884
11
16.7352
21
17.3887
0
LINE
8
BLACK
6
CONTINUOUS
10
16.7352
20
17.3887
11
16.7352
21
17.3889
0
LINE
8
BLACK
6
CONTINUOUS
10
16.7352
20
17.3889
11
16.7353
21
17.389
0
LINE
8
BLACK
6
CONTINUOUS
10
16.7353
20
17.389
11
16.7354
21
17.3891
0
LINE
8
BLACK
6
CONTINUOUS
10
16.7354
20
17.3891
11
16.7356
21
17.3892
0
LINE
8
BLACK
6
CONTINUOUS
10
16.7356
20
17.3892
11
16.7358
21
17.3894
0
LINE
8
BLACK
6
CONTINUOUS
10
16.7358
20
17.3894
11
16.7359
21
17.3894
0
LINE
8
BLACK
6
CONTINUOUS
10
16.7359
20
17.3894
11
16.736
21
17.3894
0
LINE
8
BLACK
6
CONTINUOUS
10
16.736
20
17.3894
11
18.3933
21
17.3894
0
LINE
8
BLACK
6
CONTINUOUS
10
18.3933
20
17.3894
11
18.3933
21
17.3894
0
LINE
8
BLACK
6
CONTINUOUS
10
18.3933
20
17.3894
11
18.3933
21
17.3894
0
LINE
8
BLACK
6
CONTINUOUS
10
18.3933
20
17.3894
11
18.3933
21
17.3894
0
LINE
8
BLACK
6
CONTINUOUS
10
18.3933
20
17.3894
11
18.3979
21
17.3889
0
LINE
8
BLACK
6
CONTINUOUS
10
18.3979
20
17.3889
11
18.4023
21
17.3874
0
LINE
8
BLACK
6
CONTINUOUS
10
18.4023
20
17.3874
11
18.4062
21
17.3849
0
LINE
8
BLACK
6
CONTINUOUS
10
18.4062
20
17.3849
11
18.4095
21
17.3816
0
LINE
8
BLACK
6
CONTINUOUS
10
18.4095
20
17.3816
11
18.4119
21
17.3777
0
LINE
8
BLACK
6
CONTINUOUS
10
18.4119
20
17.3777
11
18.4134
21
17.3734
0
LINE
8
BLACK
6
CONTINUOUS
10
18.4134
20
17.3734
11
18.414
21
17.3688
0
LINE
8
BLACK
6
CONTINUOUS
10
18.414
20
17.3688
11
18.414
21
17.3688
0
LINE
8
BLACK
6
CONTINUOUS
10
18.414
20
17.3688
11
18.414
21
17.3688
0
LINE
8
BLACK
6
CONTINUOUS
10
18.414
20
17.3688
11
18.414
21
17.3688
0
LINE
8
BLACK
6
CONTINUOUS
10
18.414
20
17.3688
11
18.414
21
17.3688
0
LINE
8
BLACK
6
CONTINUOUS
10
18.414
20
17.3688
11
18.414
21
17.2915
0
LINE
8
BLACK
6
CONTINUOUS
10
18.414
20
17.2915
11
18.4138
21
17.2912
0
LINE
8
BLACK
6
CONTINUOUS
10
18.4138
20
17.2912
11
18.4145
21
17.2866
0
LINE
8
BLACK
6
CONTINUOUS
10
18.4145
20
17.2866
11
18.4163
21
17.2821
0
LINE
8
BLACK
6
CONTINUOUS
10
18.4163
20
17.2821
11
18.4193
21
17.2782
0
LINE
8
BLACK
6
CONTINUOUS
10
18.4193
20
17.2782
11
18.4232
21
17.2752
0
LINE
8
BLACK
6
CONTINUOUS
10
18.4232
20
17.2752
11
18.4278
21
17.2733
0
LINE
8
BLACK
6
CONTINUOUS
10
18.4278
20
17.2733
11
18.4324
21
17.2727
0
LINE
8
BLACK
6
CONTINUOUS
10
18.4324
20
17.2727
11
18.4327
21
17.2728
0
LINE
8
BLACK
6
CONTINUOUS
10
18.4327
20
17.2728
11
18.7446
21
17.2728
0
LINE
8
BLACK
6
CONTINUOUS
10
18.7446
20
17.2728
11
18.7446
21
17.2728
0
LINE
8
BLACK
6
CONTINUOUS
10
18.7446
20
17.2728
11
18.7446
21
17.2728
0
LINE
8
BLACK
6
CONTINUOUS
10
18.7446
20
17.2728
11
18.7446
21
17.2728
0
LINE
8
BLACK
6
CONTINUOUS
10
18.7446
20
17.2728
11
18.7512
21
17.2723
0
LINE
8
BLACK
6
CONTINUOUS
10
16.7108
20
16.7142
11
16.7103
21
16.7096
0
LINE
8
BLACK
6
CONTINUOUS
10
16.7103
20
16.7096
11
16.7088
21
16.7052
0
LINE
8
BLACK
6
CONTINUOUS
10
16.7088
20
16.7052
11
16.7063
21
16.7013
0
LINE
8
BLACK
6
CONTINUOUS
10
16.7063
20
16.7013
11
16.703
21
16.698
0
LINE
8
BLACK
6
CONTINUOUS
10
16.703
20
16.698
11
16.6991
21
16.6955
0
LINE
8
BLACK
6
CONTINUOUS
10
16.6991
20
16.6955
11
16.6948
21
16.694
0
LINE
8
BLACK
6
CONTINUOUS
10
16.6948
20
16.694
11
16.6902
21
16.6935
0
LINE
8
BLACK
6
CONTINUOUS
10
16.6902
20
16.6935
11
16.6902
21
16.6935
0
LINE
8
BLACK
6
CONTINUOUS
10
16.6902
20
16.6935
11
16.6902
21
16.6935
0
LINE
8
BLACK
6
CONTINUOUS
10
16.6902
20
16.6935
11
16.6902
21
16.6935
0
LINE
8
BLACK
6
CONTINUOUS
10
16.6902
20
16.6935
11
16.6902
21
16.6935
0
LINE
8
BLACK
6
CONTINUOUS
10
16.6902
20
16.6935
11
16.2817
21
16.6935
0
LINE
8
BLACK
6
CONTINUOUS
10
16.2817
20
16.6935
11
16.2817
21
16.0281
0
LINE
8
BLACK
6
CONTINUOUS
10
16.2817
20
16.0281
11
16.285
21
16.0276
0
LINE
8
BLACK
6
CONTINUOUS
10
16.285
20
16.0276
11
16.2891
21
16.026
0
LINE
8
BLACK
6
CONTINUOUS
10
16.2891
20
16.026
11
16.2925
21
16.0233
0
LINE
8
BLACK
6
CONTINUOUS
10
16.2925
20
16.0233
11
16.2952
21
16.0198
0
LINE
8
BLACK
6
CONTINUOUS
10
16.2952
20
16.0198
11
16.2969
21
16.0158
0
LINE
8
BLACK
6
CONTINUOUS
10
16.2969
20
16.0158
11
16.2974
21
16.0115
0
LINE
8
BLACK
6
CONTINUOUS
10
16.2974
20
16.0115
11
16.2974
21
16.0115
0
LINE
8
BLACK
6
CONTINUOUS
10
16.2974
20
16.0115
11
16.2974
21
15.8461
0
LINE
8
BLACK
6
CONTINUOUS
10
16.2974
20
15.8461
11
16.2974
21
15.8461
0
LINE
8
BLACK
6
CONTINUOUS
10
16.2974
20
15.8461
11
16.2969
21
15.8418
0
LINE
8
BLACK
6
CONTINUOUS
10
16.2969
20
15.8418
11
16.2952
21
15.8378
0
LINE
8
BLACK
6
CONTINUOUS
10
16.2952
20
15.8378
11
16.2925
21
15.8343
0
LINE
8
BLACK
6
CONTINUOUS
10
16.2925
20
15.8343
11
16.2891
21
15.8316
0
LINE
8
BLACK
6
CONTINUOUS
10
16.2891
20
15.8316
11
16.285
21
15.83
0
LINE
8
BLACK
6
CONTINUOUS
10
16.285
20
15.83
11
16.2817
21
15.8295
0
LINE
8
BLACK
6
CONTINUOUS
10
16.2817
20
15.8295
11
16.2817
21
15.4987
0
LINE
8
BLACK
6
CONTINUOUS
10
16.2817
20
15.4987
11
16.2817
21
15.4987
0
LINE
8
BLACK
6
CONTINUOUS
10
16.2817
20
15.4987
11
16.2817
21
15.4987
0
LINE
8
BLACK
6
CONTINUOUS
10
16.2817
20
15.4987
11
16.2817
21
15.4987
0
LINE
8
BLACK
6
CONTINUOUS
10
16.2817
20
15.4987
11
16.2817
21
15.4987
0
LINE
8
BLACK
6
CONTINUOUS
10
16.2817
20
15.4987
11
16.2811
21
15.4938
0
LINE
8
BLACK
6
CONTINUOUS
10
16.2811
20
15.4938
11
16.2794
21
15.4892
0
LINE
8
BLACK
6
CONTINUOUS
10
16.2794
20
15.4892
11
16.2767
21
15.4852
0
LINE
8
BLACK
6
CONTINUOUS
10
16.2767
20
15.4852
11
16.2731
21
15.4819
0
LINE
8
BLACK
6
CONTINUOUS
10
16.2731
20
15.4819
11
16.2688
21
15.4795
0
LINE
8
BLACK
6
CONTINUOUS
10
16.2688
20
15.4795
11
16.2688
21
15.4795
0
LINE
8
BLACK
6
CONTINUOUS
10
16.2688
20
15.4795
11
16.2688
21
15.4795
0
LINE
8
BLACK
6
CONTINUOUS
10
16.2688
20
15.4795
11
16.2688
21
15.4795
0
LINE
8
BLACK
6
CONTINUOUS
10
16.2688
20
15.4795
11
16.2688
21
15.4795
0
LINE
8
BLACK
6
CONTINUOUS
10
16.2688
20
15.4795
11
16.2688
21
15.4795
0
LINE
8
BLACK
6
CONTINUOUS
10
16.2688
20
15.4795
11
16.2688
21
15.4795
0
LINE
8
BLACK
6
CONTINUOUS
10
16.2688
20
15.4795
11
16.2686
21
15.4795
0
LINE
8
BLACK
6
CONTINUOUS
10
16.2686
20
15.4795
11
16.2684
21
15.4795
0
LINE
8
BLACK
6
CONTINUOUS
10
16.2684
20
15.4795
11
16.2659
21
15.478
0
LINE
8
BLACK
6
CONTINUOUS
10
16.2659
20
15.478
11
16.2638
21
15.4756
0
LINE
8
BLACK
6
CONTINUOUS
10
16.2638
20
15.4756
11
16.2624
21
15.4727
0
LINE
8
BLACK
6
CONTINUOUS
10
16.2624
20
15.4727
11
16.2619
21
15.4697
0
LINE
8
BLACK
6
CONTINUOUS
10
16.2619
20
15.4697
11
16.262
21
15.4695
0
LINE
8
BLACK
6
CONTINUOUS
10
16.262
20
15.4695
11
16.262
21
15.4695
0
LINE
8
BLACK
6
CONTINUOUS
10
16.262
20
15.4695
11
16.262
21
15.4695
0
LINE
8
BLACK
6
CONTINUOUS
10
16.262
20
15.4695
11
16.262
21
15.4695
0
LINE
8
BLACK
6
CONTINUOUS
10
16.262
20
15.4695
11
16.262
21
15.3861
0
LINE
8
BLACK
6
CONTINUOUS
10
16.262
20
15.3861
11
16.2619
21
15.3859
0
LINE
8
BLACK
6
CONTINUOUS
10
16.2619
20
15.3859
11
16.2624
21
15.3829
0
LINE
8
BLACK
6
CONTINUOUS
10
16.2624
20
15.3829
11
16.2638
21
15.38
0
LINE
8
BLACK
6
CONTINUOUS
10
16.2638
20
15.38
11
16.2659
21
15.3776
0
LINE
8
BLACK
6
CONTINUOUS
10
16.2659
20
15.3776
11
16.2684
21
15.3762
0
LINE
8
BLACK
6
CONTINUOUS
10
16.2684
20
15.3762
11
16.2686
21
15.3761
0
LINE
8
BLACK
6
CONTINUOUS
10
16.2686
20
15.3761
11
16.2688
21
15.3761
0
LINE
8
BLACK
6
CONTINUOUS
10
16.2688
20
15.3761
11
16.2688
21
15.3761
0
LINE
8
BLACK
6
CONTINUOUS
10
16.2688
20
15.3761
11
16.2688
21
15.3761
0
LINE
8
BLACK
6
CONTINUOUS
10
16.2688
20
15.3761
11
16.2688
21
15.3761
0
LINE
8
BLACK
6
CONTINUOUS
10
16.2688
20
15.3761
11
16.2688
21
15.3761
0
LINE
8
BLACK
6
CONTINUOUS
10
16.2688
20
15.3761
11
16.2688
21
15.3761
0
LINE
8
BLACK
6
CONTINUOUS
10
16.2688
20
15.3761
11
16.2731
21
15.3738
0
LINE
8
BLACK
6
CONTINUOUS
10
16.2731
20
15.3738
11
16.2767
21
15.3705
0
LINE
8
BLACK
6
CONTINUOUS
10
16.2767
20
15.3705
11
16.2794
21
15.3664
0
LINE
8
BLACK
6
CONTINUOUS
10
16.2794
20
15.3664
11
16.2811
21
15.3618
0
LINE
8
BLACK
6
CONTINUOUS
10
16.2811
20
15.3618
11
16.2817
21
15.3569
0
LINE
8
BLACK
6
CONTINUOUS
10
16.2817
20
15.3569
11
16.2817
21
15.3569
0
LINE
8
BLACK
6
CONTINUOUS
10
16.2817
20
15.3569
11
16.2817
21
15.3569
0
LINE
8
BLACK
6
CONTINUOUS
10
16.2817
20
15.3569
11
16.2817
21
14.9829
0
LINE
8
BLACK
6
CONTINUOUS
10
16.2817
20
14.9829
11
16.2815
21
14.9826
0
LINE
8
BLACK
6
CONTINUOUS
10
16.2815
20
14.9826
11
16.2815
21
14.9826
0
LINE
8
BLACK
6
CONTINUOUS
10
16.2815
20
14.9826
11
16.2822
21
14.9676
0
LINE
8
BLACK
6
CONTINUOUS
10
16.2822
20
14.9676
11
16.2842
21
14.9523
0
LINE
8
BLACK
6
CONTINUOUS
10
16.2842
20
14.9523
11
16.2875
21
14.9373
0
LINE
8
BLACK
6
CONTINUOUS
10
16.2875
20
14.9373
11
16.2922
21
14.9226
0
LINE
8
BLACK
6
CONTINUOUS
10
16.2922
20
14.9226
11
16.298
21
14.9084
0
LINE
8
BLACK
6
CONTINUOUS
10
16.298
20
14.9084
11
16.3051
21
14.8948
0
LINE
8
BLACK
6
CONTINUOUS
10
16.3051
20
14.8948
11
16.3134
21
14.8818
0
LINE
8
BLACK
6
CONTINUOUS
10
16.3134
20
14.8818
11
16.3228
21
14.8696
0
LINE
8
BLACK
6
CONTINUOUS
10
16.3228
20
14.8696
11
16.3332
21
14.8582
0
LINE
8
BLACK
6
CONTINUOUS
10
16.3332
20
14.8582
11
16.3445
21
14.8478
0
LINE
8
BLACK
6
CONTINUOUS
10
16.3445
20
14.8478
11
16.3567
21
14.8385
0
LINE
8
BLACK
6
CONTINUOUS
10
16.3567
20
14.8385
11
16.3697
21
14.8302
0
LINE
8
BLACK
6
CONTINUOUS
10
16.3697
20
14.8302
11
16.3833
21
14.8231
0
LINE
8
BLACK
6
CONTINUOUS
10
16.3833
20
14.8231
11
16.3976
21
14.8172
0
LINE
8
BLACK
6
CONTINUOUS
10
16.3976
20
14.8172
11
16.4122
21
14.8126
0
LINE
8
BLACK
6
CONTINUOUS
10
16.4122
20
14.8126
11
16.4273
21
14.8093
0
LINE
8
BLACK
6
CONTINUOUS
10
16.4273
20
14.8093
11
16.4425
21
14.8073
0
LINE
8
BLACK
6
CONTINUOUS
10
16.4425
20
14.8073
11
16.4575
21
14.8066
0
LINE
8
BLACK
6
CONTINUOUS
10
16.4575
20
14.8066
11
16.4579
21
14.8068
0
LINE
8
BLACK
6
CONTINUOUS
10
16.4579
20
14.8068
11
16.7719
21
14.8068
0
LINE
8
BLACK
6
CONTINUOUS
10
16.7719
20
14.8068
11
16.7774
21
14.8143
0
LINE
8
BLACK
6
CONTINUOUS
10
16.7774
20
14.8143
11
16.7843
21
14.8215
0
LINE
8
BLACK
6
CONTINUOUS
10
16.7843
20
14.8215
11
16.7922
21
14.8277
0
LINE
8
BLACK
6
CONTINUOUS
10
16.7922
20
14.8277
11
16.8007
21
14.8328
0
LINE
8
BLACK
6
CONTINUOUS
10
16.8007
20
14.8328
11
16.8099
21
14.8366
0
LINE
8
BLACK
6
CONTINUOUS
10
16.8099
20
14.8366
11
16.8195
21
14.8393
0
LINE
8
BLACK
6
CONTINUOUS
10
16.8195
20
14.8393
11
16.8294
21
14.8406
0
LINE
8
BLACK
6
CONTINUOUS
10
16.8294
20
14.8406
11
16.8394
21
14.8406
0
LINE
8
BLACK
6
CONTINUOUS
10
16.8394
20
14.8406
11
16.8492
21
14.8393
0
LINE
8
BLACK
6
CONTINUOUS
10
16.8492
20
14.8393
11
16.8588
21
14.8366
0
LINE
8
BLACK
6
CONTINUOUS
10
16.8588
20
14.8366
11
16.868
21
14.8328
0
LINE
8
BLACK
6
CONTINUOUS
10
16.868
20
14.8328
11
16.8766
21
14.8277
0
LINE
8
BLACK
6
CONTINUOUS
10
16.8766
20
14.8277
11
16.8844
21
14.8215
0
LINE
8
BLACK
6
CONTINUOUS
10
16.8844
20
14.8215
11
16.8913
21
14.8143
0
LINE
8
BLACK
6
CONTINUOUS
10
16.8913
20
14.8143
11
16.8969
21
14.8068
0
LINE
8
BLACK
6
CONTINUOUS
10
16.8969
20
14.8068
11
19.1665
21
14.8068
0
LINE
8
BLACK
6
CONTINUOUS
10
19.1665
20
14.8068
11
19.1665
21
14.8068
0
LINE
8
BLACK
6
CONTINUOUS
10
19.1665
20
14.8068
11
19.1665
21
14.8068
0
LINE
8
BLACK
6
CONTINUOUS
10
19.1665
20
14.8068
11
19.1665
21
14.8068
0
LINE
8
BLACK
6
CONTINUOUS
10
19.1665
20
14.8068
11
19.1665
21
14.8068
0
LINE
8
BLACK
6
CONTINUOUS
10
19.1665
20
14.8068
11
19.1668
21
14.8066
0
LINE
8
BLACK
6
CONTINUOUS
10
19.1668
20
14.8066
11
19.1714
21
14.8072
0
LINE
8
BLACK
6
CONTINUOUS
10
19.1714
20
14.8072
11
19.176
21
14.8091
0
LINE
8
BLACK
6
CONTINUOUS
10
19.176
20
14.8091
11
19.1799
21
14.8121
0
LINE
8
BLACK
6
CONTINUOUS
10
19.1799
20
14.8121
11
19.1829
21
14.816
0
LINE
8
BLACK
6
CONTINUOUS
10
19.1829
20
14.816
11
19.1847
21
14.8206
0
LINE
8
BLACK
6
CONTINUOUS
10
19.1847
20
14.8206
11
19.1854
21
14.8252
0
LINE
8
BLACK
6
CONTINUOUS
10
19.1854
20
14.8252
11
19.1852
21
14.8255
0
LINE
8
BLACK
6
CONTINUOUS
10
19.1852
20
14.8255
11
19.1852
21
15.924
0
LINE
8
BLACK
6
CONTINUOUS
10
19.1852
20
15.924
11
19.1832
21
15.9274
0
LINE
8
BLACK
6
CONTINUOUS
10
19.1832
20
15.9274
11
19.1801
21
15.9305
0
LINE
8
BLACK
6
CONTINUOUS
10
19.1801
20
15.9305
11
19.1764
21
15.9328
0
LINE
8
BLACK
6
CONTINUOUS
10
19.1764
20
15.9328
11
19.1723
21
15.9343
0
LINE
8
BLACK
6
CONTINUOUS
10
19.1723
20
15.9343
11
19.1682
21
15.9347
0
LINE
8
BLACK
6
CONTINUOUS
10
19.1682
20
15.9347
11
19.1679
21
15.9346
0
LINE
8
BLACK
6
CONTINUOUS
10
19.1679
20
15.9346
11
19.1679
21
15.9346
0
LINE
8
BLACK
6
CONTINUOUS
10
19.1679
20
15.9346
11
19.1679
21
15.9346
0
LINE
8
BLACK
6
CONTINUOUS
10
19.1679
20
15.9346
11
19.1449
21
15.9346
0
LINE
8
BLACK
6
CONTINUOUS
10
19.1449
20
15.9346
11
19.1446
21
15.9347
0
LINE
8
BLACK
6
CONTINUOUS
10
19.1446
20
15.9347
11
19.1444
21
15.9347
0
LINE
8
BLACK
6
CONTINUOUS
10
19.1444
20
15.9347
11
19.1071
21
15.9558
0
LINE
8
BLACK
6
CONTINUOUS
10
19.1071
20
15.9558
11
19.1071
21
15.9558
0
LINE
8
BLACK
6
CONTINUOUS
10
19.1071
20
15.9558
11
19.1071
21
15.9558
0
LINE
8
BLACK
6
CONTINUOUS
10
19.1071
20
15.9558
11
19.1071
21
15.9558
0
LINE
8
BLACK
6
CONTINUOUS
10
19.1071
20
15.9558
11
19.1052
21
15.9572
0
LINE
8
BLACK
6
CONTINUOUS
10
19.1052
20
15.9572
11
19.1038
21
15.9591
0
LINE
8
BLACK
6
CONTINUOUS
10
19.1038
20
15.9591
11
19.1029
21
15.9612
0
LINE
8
BLACK
6
CONTINUOUS
10
19.1029
20
15.9612
11
19.1026
21
15.9635
0
LINE
8
BLACK
6
CONTINUOUS
10
19.1026
20
15.9635
11
19.1026
21
15.9635
0
LINE
8
BLACK
6
CONTINUOUS
10
19.1026
20
15.9635
11
19.1026
21
16.2304
0
LINE
8
BLACK
6
CONTINUOUS
10
19.1026
20
16.2304
11
19.1026
21
16.2305
0
LINE
8
BLACK
6
CONTINUOUS
10
19.1026
20
16.2305
11
19.1031
21
16.2334
0
LINE
8
BLACK
6
CONTINUOUS
10
19.1031
20
16.2334
11
19.1046
21
16.2361
0
LINE
8
BLACK
6
CONTINUOUS
10
19.1046
20
16.2361
11
19.1067
21
16.2379
0
LINE
8
BLACK
6
CONTINUOUS
10
19.1067
20
16.2379
11
19.1067
21
16.2379
0
LINE
8
BLACK
6
CONTINUOUS
10
19.1067
20
16.2379
11
19.1067
21
16.2379
0
LINE
8
BLACK
6
CONTINUOUS
10
19.1067
20
16.2379
11
19.1069
21
16.238
0
LINE
8
BLACK
6
CONTINUOUS
10
19.1069
20
16.238
11
19.1069
21
16.238
0
LINE
8
BLACK
6
CONTINUOUS
10
19.1069
20
16.238
11
19.1069
21
16.238
0
LINE
8
BLACK
6
CONTINUOUS
10
19.1069
20
16.238
11
19.1069
21
16.238
0
LINE
8
BLACK
6
CONTINUOUS
10
19.1069
20
16.238
11
19.1403
21
16.2581
0
LINE
8
BLACK
6
CONTINUOUS
10
19.1403
20
16.2581
11
19.1406
21
16.2582
0
LINE
8
BLACK
6
CONTINUOUS
10
19.1406
20
16.2582
11
19.1408
21
16.2583
0
LINE
8
BLACK
6
CONTINUOUS
10
19.1408
20
16.2583
11
19.1682
21
16.2594
0
LINE
8
BLACK
6
CONTINUOUS
10
19.1682
20
16.2594
11
19.1682
21
16.2594
0
LINE
8
BLACK
6
CONTINUOUS
10
19.1682
20
16.2594
11
19.1683
21
16.2594
0
LINE
8
BLACK
6
CONTINUOUS
10
19.1683
20
16.2594
11
19.1683
21
16.2594
0
LINE
8
BLACK
6
CONTINUOUS
10
19.1683
20
16.2594
11
19.1683
21
16.2594
0
LINE
8
BLACK
6
CONTINUOUS
10
19.1683
20
16.2594
11
19.1683
21
16.2594
0
LINE
8
BLACK
6
CONTINUOUS
10
19.1683
20
16.2594
11
19.1685
21
16.2593
0
LINE
8
BLACK
6
CONTINUOUS
10
19.1685
20
16.2593
11
19.1725
21
16.2598
0
LINE
8
BLACK
6
CONTINUOUS
10
19.1725
20
16.2598
11
19.1766
21
16.2612
0
LINE
8
BLACK
6
CONTINUOUS
10
19.1766
20
16.2612
11
19.1802
21
16.2635
0
LINE
8
BLACK
6
CONTINUOUS
10
19.1802
20
16.2635
11
19.1832
21
16.2665
0
LINE
8
BLACK
6
CONTINUOUS
10
19.1832
20
16.2665
11
19.1852
21
16.2699
0
LINE
8
BLACK
6
CONTINUOUS
10
19.1852
20
16.2699
11
19.1852
21
17.0786
0
LINE
8
BLACK
6
CONTINUOUS
10
19.1852
20
17.0786
11
19.1853
21
17.0788
0
LINE
8
BLACK
6
CONTINUOUS
10
19.1853
20
17.0788
11
19.185
21
17.0823
0
LINE
8
BLACK
6
CONTINUOUS
10
19.185
20
17.0823
11
19.1839
21
17.0858
0
LINE
8
BLACK
6
CONTINUOUS
10
19.1839
20
17.0858
11
19.1821
21
17.0891
0
LINE
8
BLACK
6
CONTINUOUS
10
19.1821
20
17.0891
11
19.1799
21
17.0918
0
LINE
8
BLACK
6
CONTINUOUS
10
19.1799
20
17.0918
11
19.1797
21
17.0919
0
LINE
8
BLACK
6
CONTINUOUS
10
19.1797
20
17.0919
11
19.1797
21
17.0919
0
LINE
8
BLACK
6
CONTINUOUS
10
19.1797
20
17.0919
11
19.1797
21
17.0919
0
LINE
8
BLACK
6
CONTINUOUS
10
19.1797
20
17.0919
11
19.1797
21
17.0919
0
LINE
8
BLACK
6
CONTINUOUS
10
19.1797
20
17.0919
11
19.073
21
17.1985
0
LINE
8
BLACK
6
CONTINUOUS
10
19.073
20
17.1985
11
19.073
21
17.1985
0
LINE
8
BLACK
6
CONTINUOUS
10
19.073
20
17.1985
11
19.073
21
17.1985
0
LINE
8
BLACK
6
CONTINUOUS
10
19.073
20
17.1985
11
19.073
21
17.1986
0
LINE
8
BLACK
6
CONTINUOUS
10
19.073
20
17.1986
11
19.0703
21
17.2008
0
LINE
8
BLACK
6
CONTINUOUS
10
19.0703
20
17.2008
11
19.067
21
17.2026
0
LINE
8
BLACK
6
CONTINUOUS
10
19.067
20
17.2026
11
19.0635
21
17.2036
0
LINE
8
BLACK
6
CONTINUOUS
10
19.0635
20
17.2036
11
19.06
21
17.204
0
LINE
8
BLACK
6
CONTINUOUS
10
19.06
20
17.204
11
19.0598
21
17.2039
0
LINE
8
BLACK
6
CONTINUOUS
10
19.0598
20
17.2039
11
19.0598
21
17.2039
0
LINE
8
BLACK
6
CONTINUOUS
10
19.0598
20
17.2039
11
19.0598
21
17.2039
0
LINE
8
BLACK
6
CONTINUOUS
10
19.0598
20
17.2039
11
19.0598
21
17.2039
0
LINE
8
BLACK
6
CONTINUOUS
10
19.0598
20
17.2039
11
18.8901
21
17.2039
0
LINE
8
BLACK
6
CONTINUOUS
10
18.8901
20
17.2039
11
18.8836
21
17.2045
0
LINE
8
BLACK
6
CONTINUOUS
10
18.8836
20
17.2045
11
18.8772
21
17.206
0
LINE
8
BLACK
6
CONTINUOUS
10
18.8772
20
17.206
11
18.8712
21
17.2086
0
LINE
8
BLACK
6
CONTINUOUS
10
18.8712
20
17.2086
11
18.8712
21
17.2086
0
LINE
8
BLACK
6
CONTINUOUS
10
18.8712
20
17.2086
11
18.7626
21
17.2664
0
LINE
8
BLACK
6
CONTINUOUS
10
18.7626
20
17.2664
11
18.7626
21
17.2664
0
LINE
8
BLACK
6
CONTINUOUS
10
18.7626
20
17.2664
11
18.7626
21
17.2664
0
LINE
8
BLACK
6
CONTINUOUS
10
18.7626
20
17.2664
11
18.7626
21
17.2664
0
LINE
8
BLACK
6
CONTINUOUS
10
18.7626
20
17.2664
11
18.7625
21
17.2664
0
LINE
8
BLACK
6
CONTINUOUS
10
18.7625
20
17.2664
11
18.7625
21
17.2664
0
LINE
8
BLACK
6
CONTINUOUS
10
18.7625
20
17.2664
11
18.7625
21
17.2665
0
LINE
8
BLACK
6
CONTINUOUS
10
18.7625
20
17.2665
11
18.7624
21
17.2665
0
LINE
8
BLACK
6
CONTINUOUS
10
18.7624
20
17.2665
11
18.7624
21
17.2666
0
LINE
8
BLACK
6
CONTINUOUS
10
18.7624
20
17.2666
11
18.7569
21
17.2689
0
LINE
8
BLACK
6
CONTINUOUS
10
18.7569
20
17.2689
11
18.7509
21
17.2705
0
LINE
8
BLACK
6
CONTINUOUS
10
18.7509
20
17.2705
11
18.7449
21
17.271
0
LINE
8
BLACK
6
CONTINUOUS
10
18.7449
20
17.271
11
18.7446
21
17.2708
0
LINE
8
BLACK
6
CONTINUOUS
10
18.7446
20
17.2708
11
18.4327
21
17.2708
0
LINE
8
BLACK
6
CONTINUOUS
10
18.4327
20
17.2708
11
18.4327
21
17.2708
0
LINE
8
BLACK
6
CONTINUOUS
10
18.4327
20
17.2708
11
18.4281
21
17.2714
0
LINE
8
BLACK
6
CONTINUOUS
10
18.4281
20
17.2714
11
18.4237
21
17.2729
0
LINE
8
BLACK
6
CONTINUOUS
10
18.4237
20
17.2729
11
18.4198
21
17.2754
0
LINE
8
BLACK
6
CONTINUOUS
10
18.4198
20
17.2754
11
18.4165
21
17.2786
0
LINE
8
BLACK
6
CONTINUOUS
10
18.4165
20
17.2786
11
18.4141
21
17.2826
0
LINE
8
BLACK
6
CONTINUOUS
10
18.4141
20
17.2826
11
18.4125
21
17.2869
0
LINE
8
BLACK
6
CONTINUOUS
10
18.4125
20
17.2869
11
18.412
21
17.2915
0
LINE
8
BLACK
6
CONTINUOUS
10
18.412
20
17.2915
11
18.412
21
17.2915
0
LINE
8
BLACK
6
CONTINUOUS
10
18.412
20
17.2915
11
18.412
21
17.2915
0
LINE
8
BLACK
6
CONTINUOUS
10
18.412
20
17.2915
11
18.412
21
17.3688
0
LINE
8
BLACK
6
CONTINUOUS
10
18.412
20
17.3688
11
18.4121
21
17.3691
0
LINE
8
BLACK
6
CONTINUOUS
10
18.4121
20
17.3691
11
18.4115
21
17.3736
0
LINE
8
BLACK
6
CONTINUOUS
10
18.4115
20
17.3736
11
18.4096
21
17.3782
0
LINE
8
BLACK
6
CONTINUOUS
10
18.4096
20
17.3782
11
18.4066
21
17.3821
0
LINE
8
BLACK
6
CONTINUOUS
10
18.4066
20
17.3821
11
18.4027
21
17.3851
0
LINE
8
BLACK
6
CONTINUOUS
10
18.4027
20
17.3851
11
18.3982
21
17.387
0
LINE
8
BLACK
6
CONTINUOUS
10
18.3982
20
17.387
11
18.3936
21
17.3876
0
LINE
8
BLACK
6
CONTINUOUS
10
18.3936
20
17.3876
11
18.3933
21
17.3875
0
LINE
8
BLACK
6
CONTINUOUS
10
18.3933
20
17.3875
11
16.7366
21
17.3875
0
LINE
8
BLACK
6
CONTINUOUS
10
16.7366
20
17.3875
11
16.7311
21
17.3794
0
LINE
8
BLACK
6
CONTINUOUS
10
16.7311
20
17.3794
11
16.7243
21
17.3716
0
LINE
8
BLACK
6
CONTINUOUS
10
16.7243
20
17.3716
11
16.7165
21
17.3648
0
LINE
8
BLACK
6
CONTINUOUS
10
16.7165
20
17.3648
11
16.7079
21
17.3591
0
LINE
8
BLACK
6
CONTINUOUS
10
16.7079
20
17.3591
11
16.6987
21
17.3546
0
LINE
8
BLACK
6
CONTINUOUS
10
16.6987
20
17.3546
11
16.6889
21
17.3513
0
LINE
8
BLACK
6
CONTINUOUS
10
16.6889
20
17.3513
11
16.6787
21
17.3493
0
LINE
8
BLACK
6
CONTINUOUS
10
16.6787
20
17.3493
11
16.6684
21
17.3486
0
LINE
8
BLACK
6
CONTINUOUS
10
16.6684
20
17.3486
11
16.6581
21
17.3493
0
LINE
8
BLACK
6
CONTINUOUS
10
16.6581
20
17.3493
11
16.648
21
17.3513
0
LINE
8
BLACK
6
CONTINUOUS
10
16.648
20
17.3513
11
16.6382
21
17.3546
0
LINE
8
BLACK
6
CONTINUOUS
10
16.6382
20
17.3546
11
16.6289
21
17.3591
0
LINE
8
BLACK
6
CONTINUOUS
10
16.6289
20
17.3591
11
16.6204
21
17.3648
0
LINE
8
BLACK
6
CONTINUOUS
10
16.6204
20
17.3648
11
16.6126
21
17.3716
0
LINE
8
BLACK
6
CONTINUOUS
10
16.6126
20
17.3716
11
16.6057
21
17.3794
0
LINE
8
BLACK
6
CONTINUOUS
10
16.6057
20
17.3794
11
16.6003
21
17.3875
0
LINE
8
BLACK
6
CONTINUOUS
10
16.6003
20
17.3875
11
16.4579
21
17.3875
0
LINE
8
BLACK
6
CONTINUOUS
10
16.4579
20
17.3875
11
16.4575
21
17.3876
0
LINE
8
BLACK
6
CONTINUOUS
10
16.4575
20
17.3876
11
16.4575
21
17.3876
0
LINE
8
BLACK
6
CONTINUOUS
10
16.4575
20
17.3876
11
16.4425
21
17.387
0
LINE
8
BLACK
6
CONTINUOUS
10
16.4425
20
17.387
11
16.4273
21
17.385
0
LINE
8
BLACK
6
CONTINUOUS
10
16.4273
20
17.385
11
16.4122
21
17.3816
0
LINE
8
BLACK
6
CONTINUOUS
10
16.4122
20
17.3816
11
16.3976
21
17.377
0
LINE
8
BLACK
6
CONTINUOUS
10
16.3976
20
17.377
11
16.3833
21
17.3711
0
LINE
8
BLACK
6
CONTINUOUS
10
16.3833
20
17.3711
11
16.3697
21
17.364
0
LINE
8
BLACK
6
CONTINUOUS
10
16.3697
20
17.364
11
16.3567
21
17.3557
0
LINE
8
BLACK
6
CONTINUOUS
10
16.3567
20
17.3557
11
16.3445
21
17.3464
0
LINE
8
BLACK
6
CONTINUOUS
10
16.3445
20
17.3464
11
16.3332
21
17.336
0
LINE
8
BLACK
6
CONTINUOUS
10
16.3332
20
17.336
11
16.3228
21
17.3246
0
LINE
8
BLACK
6
CONTINUOUS
10
16.3228
20
17.3246
11
16.3134
21
17.3124
0
LINE
8
BLACK
6
CONTINUOUS
10
16.3134
20
17.3124
11
16.3051
21
17.2995
0
LINE
8
BLACK
6
CONTINUOUS
10
16.3051
20
17.2995
11
16.298
21
17.2858
0
LINE
8
BLACK
6
CONTINUOUS
10
16.298
20
17.2858
11
16.2922
21
17.2716
0
LINE
8
BLACK
6
CONTINUOUS
10
16.2922
20
17.2716
11
16.2875
21
17.2569
0
LINE
8
BLACK
6
CONTINUOUS
10
16.2875
20
17.2569
11
16.2842
21
17.2419
0
LINE
8
BLACK
6
CONTINUOUS
10
16.2842
20
17.2419
11
16.2822
21
17.2266
0
LINE
8
BLACK
6
CONTINUOUS
10
16.2822
20
17.2266
11
16.2815
21
17.2116
0
LINE
8
BLACK
6
CONTINUOUS
10
16.2815
20
17.2116
11
16.2817
21
17.2113
0
LINE
8
BLACK
6
CONTINUOUS
10
16.2817
20
17.2113
11
16.2817
21
16.9573
0
LINE
8
BLACK
6
CONTINUOUS
10
16.2817
20
16.9573
11
16.6902
21
16.9573
0
LINE
8
BLACK
6
CONTINUOUS
10
16.6902
20
16.9573
11
16.6902
21
16.9573
0
LINE
8
BLACK
6
CONTINUOUS
10
16.6902
20
16.9573
11
16.6902
21
16.9573
0
LINE
8
BLACK
6
CONTINUOUS
10
16.6902
20
16.9573
11
16.6902
21
16.9573
0
LINE
8
BLACK
6
CONTINUOUS
10
16.6902
20
16.9573
11
16.6947
21
16.9567
0
LINE
8
BLACK
6
CONTINUOUS
10
16.6947
20
16.9567
11
16.6991
21
16.9552
0
LINE
8
BLACK
6
CONTINUOUS
10
16.6991
20
16.9552
11
16.703
21
16.9527
0
LINE
8
BLACK
6
CONTINUOUS
10
16.703
20
16.9527
11
16.7063
21
16.9495
0
LINE
8
BLACK
6
CONTINUOUS
10
16.7063
20
16.9495
11
16.7088
21
16.9456
0
LINE
8
BLACK
6
CONTINUOUS
10
16.7088
20
16.9456
11
16.7103
21
16.9412
0
LINE
8
BLACK
6
CONTINUOUS
10
16.7103
20
16.9412
11
16.7108
21
16.9366
0
LINE
8
BLACK
6
CONTINUOUS
10
16.7108
20
16.9366
11
16.7108
21
16.9366
0
LINE
8
BLACK
6
CONTINUOUS
10
16.7108
20
16.9366
11
16.7108
21
16.9366
0
LINE
8
BLACK
6
CONTINUOUS
10
16.7108
20
16.9366
11
16.7108
21
16.9366
0
LINE
8
BLACK
6
CONTINUOUS
10
16.7108
20
16.9366
11
16.7108
21
16.7142
0
LINE
8
BLACK
6
CONTINUOUS
10
16.7108
20
16.7142
11
16.7108
21
16.7142
  0
ENDSEC
  0
EOF
