ISO-10303-21;
HEADER;
FILE_DESCRIPTION((''),'2;1');
FILE_NAME('REED_SWITCH','2022-12-26T22:42:08',(''),(''),
'','');
FILE_SCHEMA(('CONFIG_CONTROL_DESIGN'));
ENDSEC;
DATA;
#1=CARTESIAN_POINT('',(-5.055219315122E0,0.E0,0.E0));
#2=DIRECTION('',(1.E0,0.E0,0.E0));
#3=DIRECTION('',(0.E0,0.E0,-1.E0));
#4=AXIS2_PLACEMENT_3D('',#1,#2,#3);
#6=CARTESIAN_POINT('',(-5.055219315122E0,0.E0,0.E0));
#7=DIRECTION('',(0.E0,1.E0,0.E0));
#8=DIRECTION('',(0.E0,0.E0,-1.E0));
#9=AXIS2_PLACEMENT_3D('',#6,#7,#8);
#11=CARTESIAN_POINT('',(-5.055219315122E0,0.E0,0.E0));
#12=DIRECTION('',(0.E0,-1.E0,0.E0));
#13=DIRECTION('',(0.E0,0.E0,1.E0));
#14=AXIS2_PLACEMENT_3D('',#11,#12,#13);
#16=CARTESIAN_POINT('',(-5.055219315122E0,0.E0,0.E0));
#17=DIRECTION('',(-1.E0,0.E0,0.E0));
#18=DIRECTION('',(0.E0,0.E0,-1.E0));
#19=AXIS2_PLACEMENT_3D('',#16,#17,#18);
#21=CARTESIAN_POINT('',(-6.48E0,0.E0,0.E0));
#22=DIRECTION('',(0.E0,1.E0,0.E0));
#23=DIRECTION('',(6.249038091568E-1,0.E0,-7.807017543860E-1));
#24=AXIS2_PLACEMENT_3D('',#21,#22,#23);
#26=CARTESIAN_POINT('',(-6.48E0,0.E0,0.E0));
#27=DIRECTION('',(0.E0,-1.E0,0.E0));
#28=DIRECTION('',(6.249038091568E-1,0.E0,7.807017543860E-1));
#29=AXIS2_PLACEMENT_3D('',#26,#27,#28);
#31=CARTESIAN_POINT('',(-5.767609657561E0,0.E0,0.E0));
#32=DIRECTION('',(-1.E0,0.E0,0.E0));
#33=DIRECTION('',(0.E0,0.E0,-1.E0));
#34=AXIS2_PLACEMENT_3D('',#31,#32,#33);
#36=CARTESIAN_POINT('',(-5.767609657561E0,0.E0,0.E0));
#37=DIRECTION('',(1.E0,0.E0,0.E0));
#38=DIRECTION('',(0.E0,0.E0,-1.E0));
#39=AXIS2_PLACEMENT_3D('',#36,#37,#38);
#41=CARTESIAN_POINT('',(-7.603312802633E0,0.E0,0.E0));
#42=DIRECTION('',(1.E0,0.E0,0.E0));
#43=DIRECTION('',(0.E0,0.E0,-1.E0));
#44=AXIS2_PLACEMENT_3D('',#41,#42,#43);
#46=DIRECTION('',(-1.E0,0.E0,0.E0));
#47=VECTOR('',#46,1.258668719737E1);
#48=CARTESIAN_POINT('',(-7.603312802633E0,0.E0,-1.943408023041E-1));
#49=LINE('',#48,#47);
#50=DIRECTION('',(-1.E0,0.E0,0.E0));
#51=VECTOR('',#50,1.258668719737E1);
#52=CARTESIAN_POINT('',(-7.603312802633E0,0.E0,1.943408023041E-1));
#53=LINE('',#52,#51);
#54=CARTESIAN_POINT('',(-7.603312802633E0,0.E0,0.E0));
#55=DIRECTION('',(-1.E0,0.E0,0.E0));
#56=DIRECTION('',(0.E0,0.E0,-1.E0));
#57=AXIS2_PLACEMENT_3D('',#54,#55,#56);
#59=CARTESIAN_POINT('',(-2.019E1,0.E0,0.E0));
#60=DIRECTION('',(-1.E0,0.E0,0.E0));
#61=DIRECTION('',(0.E0,0.E0,-1.E0));
#62=AXIS2_PLACEMENT_3D('',#59,#60,#61);
#64=CARTESIAN_POINT('',(-2.019E1,0.E0,0.E0));
#65=DIRECTION('',(1.E0,0.E0,0.E0));
#66=DIRECTION('',(0.E0,0.E0,-1.E0));
#67=AXIS2_PLACEMENT_3D('',#64,#65,#66);
#69=DIRECTION('',(-1.E0,0.E0,0.E0));
#70=VECTOR('',#69,1.011043863024E1);
#71=CARTESIAN_POINT('',(5.055219315122E0,0.E0,-1.14E0));
#72=LINE('',#71,#70);
#73=DIRECTION('',(-1.E0,0.E0,0.E0));
#74=VECTOR('',#73,1.011043863024E1);
#75=CARTESIAN_POINT('',(5.055219315122E0,0.E0,1.14E0));
#76=LINE('',#75,#74);
#77=CARTESIAN_POINT('',(5.055219315122E0,0.E0,0.E0));
#78=DIRECTION('',(-1.E0,0.E0,0.E0));
#79=DIRECTION('',(0.E0,0.E0,-1.E0));
#80=AXIS2_PLACEMENT_3D('',#77,#78,#79);
#82=CARTESIAN_POINT('',(5.055219315122E0,0.E0,0.E0));
#83=DIRECTION('',(1.E0,0.E0,0.E0));
#84=DIRECTION('',(0.E0,0.E0,-1.E0));
#85=AXIS2_PLACEMENT_3D('',#82,#83,#84);
#87=CARTESIAN_POINT('',(5.767609657561E0,0.E0,0.E0));
#88=DIRECTION('',(1.E0,0.E0,0.E0));
#89=DIRECTION('',(0.E0,0.E0,-1.E0));
#90=AXIS2_PLACEMENT_3D('',#87,#88,#89);
#92=CARTESIAN_POINT('',(5.055219315122E0,0.E0,0.E0));
#93=DIRECTION('',(0.E0,1.E0,0.E0));
#94=DIRECTION('',(6.249038091568E-1,0.E0,-7.807017543860E-1));
#95=AXIS2_PLACEMENT_3D('',#92,#93,#94);
#97=CARTESIAN_POINT('',(5.055219315122E0,0.E0,0.E0));
#98=DIRECTION('',(0.E0,-1.E0,0.E0));
#99=DIRECTION('',(6.249038091568E-1,0.E0,7.807017543860E-1));
#100=AXIS2_PLACEMENT_3D('',#97,#98,#99);
#102=CARTESIAN_POINT('',(5.767609657561E0,0.E0,0.E0));
#103=DIRECTION('',(-1.E0,0.E0,0.E0));
#104=DIRECTION('',(0.E0,0.E0,-1.E0));
#105=AXIS2_PLACEMENT_3D('',#102,#103,#104);
#107=CARTESIAN_POINT('',(6.48E0,0.E0,0.E0));
#108=DIRECTION('',(0.E0,1.E0,0.E0));
#109=DIRECTION('',(9.853621075730E-1,0.E0,-1.704743879861E-1));
#110=AXIS2_PLACEMENT_3D('',#107,#108,#109);
#112=CARTESIAN_POINT('',(6.48E0,0.E0,0.E0));
#113=DIRECTION('',(0.E0,-1.E0,0.E0));
#114=DIRECTION('',(9.853621075730E-1,0.E0,1.704743879861E-1));
#115=AXIS2_PLACEMENT_3D('',#112,#113,#114);
#117=CARTESIAN_POINT('',(7.603312802633E0,0.E0,0.E0));
#118=DIRECTION('',(-1.E0,0.E0,0.E0));
#119=DIRECTION('',(0.E0,0.E0,-1.E0));
#120=AXIS2_PLACEMENT_3D('',#117,#118,#119);
#122=CARTESIAN_POINT('',(7.603312802633E0,0.E0,0.E0));
#123=DIRECTION('',(1.E0,0.E0,0.E0));
#124=DIRECTION('',(0.E0,0.E0,-1.E0));
#125=AXIS2_PLACEMENT_3D('',#122,#123,#124);
#127=CARTESIAN_POINT('',(2.019E1,0.E0,0.E0));
#128=DIRECTION('',(1.E0,0.E0,0.E0));
#129=DIRECTION('',(0.E0,0.E0,-1.E0));
#130=AXIS2_PLACEMENT_3D('',#127,#128,#129);
#132=DIRECTION('',(-1.E0,0.E0,0.E0));
#133=VECTOR('',#132,1.258668719737E1);
#134=CARTESIAN_POINT('',(2.019E1,0.E0,-1.943408023041E-1));
#135=LINE('',#134,#133);
#136=DIRECTION('',(-1.E0,0.E0,0.E0));
#137=VECTOR('',#136,1.258668719737E1);
#138=CARTESIAN_POINT('',(2.019E1,0.E0,1.943408023041E-1));
#139=LINE('',#138,#137);
#140=CARTESIAN_POINT('',(2.019E1,0.E0,0.E0));
#141=DIRECTION('',(-1.E0,0.E0,0.E0));
#142=DIRECTION('',(0.E0,0.E0,-1.E0));
#143=AXIS2_PLACEMENT_3D('',#140,#141,#142);
#145=CARTESIAN_POINT('',(-5.055219315122E0,0.E0,-1.14E0));
#146=CARTESIAN_POINT('',(-5.767609657561E0,0.E0,-8.9E-1));
#147=VERTEX_POINT('',#145);
#148=VERTEX_POINT('',#146);
#149=CARTESIAN_POINT('',(-7.603312802633E0,0.E0,-1.943408023041E-1));
#150=VERTEX_POINT('',#149);
#151=CARTESIAN_POINT('',(-2.019E1,0.E0,-1.943408023041E-1));
#152=VERTEX_POINT('',#151);
#153=CARTESIAN_POINT('',(2.019E1,0.E0,-1.943408023041E-1));
#154=CARTESIAN_POINT('',(7.603312802633E0,0.E0,-1.943408023041E-1));
#155=VERTEX_POINT('',#153);
#156=VERTEX_POINT('',#154);
#157=CARTESIAN_POINT('',(5.767609657561E0,0.E0,-8.9E-1));
#158=VERTEX_POINT('',#157);
#159=CARTESIAN_POINT('',(5.055219315122E0,0.E0,-1.14E0));
#160=VERTEX_POINT('',#159);
#161=CARTESIAN_POINT('',(-5.055219315122E0,0.E0,1.14E0));
#162=CARTESIAN_POINT('',(-5.767609657561E0,0.E0,8.9E-1));
#163=VERTEX_POINT('',#161);
#164=VERTEX_POINT('',#162);
#165=CARTESIAN_POINT('',(-7.603312802633E0,0.E0,1.943408023041E-1));
#166=VERTEX_POINT('',#165);
#167=CARTESIAN_POINT('',(-2.019E1,0.E0,1.943408023041E-1));
#168=VERTEX_POINT('',#167);
#169=CARTESIAN_POINT('',(2.019E1,0.E0,1.943408023041E-1));
#170=CARTESIAN_POINT('',(7.603312802633E0,0.E0,1.943408023041E-1));
#171=VERTEX_POINT('',#169);
#172=VERTEX_POINT('',#170);
#173=CARTESIAN_POINT('',(5.767609657561E0,0.E0,8.9E-1));
#174=VERTEX_POINT('',#173);
#175=CARTESIAN_POINT('',(5.055219315122E0,0.E0,1.14E0));
#176=VERTEX_POINT('',#175);
#177=CARTESIAN_POINT('',(-5.055219315122E0,0.E0,0.E0));
#178=DIRECTION('',(1.E0,0.E0,0.E0));
#179=DIRECTION('',(0.E0,0.E0,1.E0));
#180=AXIS2_PLACEMENT_3D('',#177,#178,#179);
#181=SPHERICAL_SURFACE('',#180,1.14E0);
#183=ORIENTED_EDGE('',*,*,#182,.F.);
#185=ORIENTED_EDGE('',*,*,#184,.T.);
#187=ORIENTED_EDGE('',*,*,#186,.T.);
#189=ORIENTED_EDGE('',*,*,#188,.F.);
#190=EDGE_LOOP('',(#183,#185,#187,#189));
#191=FACE_OUTER_BOUND('',#190,.F.);
#192=ADVANCED_FACE('',(#191),#181,.T.);
#193=CARTESIAN_POINT('',(-5.055219315122E0,0.E0,0.E0));
#194=DIRECTION('',(1.E0,0.E0,0.E0));
#195=DIRECTION('',(0.E0,0.E0,1.E0));
#196=AXIS2_PLACEMENT_3D('',#193,#194,#195);
#197=SPHERICAL_SURFACE('',#196,1.14E0);
#198=ORIENTED_EDGE('',*,*,#182,.T.);
#200=ORIENTED_EDGE('',*,*,#199,.T.);
#201=ORIENTED_EDGE('',*,*,#186,.F.);
#203=ORIENTED_EDGE('',*,*,#202,.F.);
#204=EDGE_LOOP('',(#198,#200,#201,#203));
#205=FACE_OUTER_BOUND('',#204,.F.);
#206=ADVANCED_FACE('',(#205),#197,.T.);
#207=CARTESIAN_POINT('',(-6.48E0,0.E0,0.E0));
#208=DIRECTION('',(1.E0,0.E0,0.E0));
#209=DIRECTION('',(0.E0,0.E0,1.E0));
#210=AXIS2_PLACEMENT_3D('',#207,#208,#209);
#211=SPHERICAL_SURFACE('',#210,1.14E0);
#213=ORIENTED_EDGE('',*,*,#212,.T.);
#215=ORIENTED_EDGE('',*,*,#214,.T.);
#217=ORIENTED_EDGE('',*,*,#216,.F.);
#218=ORIENTED_EDGE('',*,*,#199,.F.);
#219=EDGE_LOOP('',(#213,#215,#217,#218));
#220=FACE_OUTER_BOUND('',#219,.F.);
#221=ADVANCED_FACE('',(#220),#211,.T.);
#222=CARTESIAN_POINT('',(-6.48E0,0.E0,0.E0));
#223=DIRECTION('',(1.E0,0.E0,0.E0));
#224=DIRECTION('',(0.E0,0.E0,1.E0));
#225=AXIS2_PLACEMENT_3D('',#222,#223,#224);
#226=SPHERICAL_SURFACE('',#225,1.14E0);
#227=ORIENTED_EDGE('',*,*,#212,.F.);
#228=ORIENTED_EDGE('',*,*,#188,.T.);
#229=ORIENTED_EDGE('',*,*,#216,.T.);
#231=ORIENTED_EDGE('',*,*,#230,.F.);
#232=EDGE_LOOP('',(#227,#228,#229,#231));
#233=FACE_OUTER_BOUND('',#232,.F.);
#234=ADVANCED_FACE('',(#233),#226,.T.);
#235=CARTESIAN_POINT('',(-2.2209E1,0.E0,0.E0));
#236=DIRECTION('',(1.E0,0.E0,0.E0));
#237=DIRECTION('',(0.E0,0.E0,1.E0));
#238=AXIS2_PLACEMENT_3D('',#235,#236,#237);
#239=CYLINDRICAL_SURFACE('',#238,1.943408023041E-1);
#241=ORIENTED_EDGE('',*,*,#240,.F.);
#242=ORIENTED_EDGE('',*,*,#230,.T.);
#244=ORIENTED_EDGE('',*,*,#243,.T.);
#246=ORIENTED_EDGE('',*,*,#245,.F.);
#247=EDGE_LOOP('',(#241,#242,#244,#246));
#248=FACE_OUTER_BOUND('',#247,.F.);
#249=ADVANCED_FACE('',(#248),#239,.T.);
#250=CARTESIAN_POINT('',(-2.2209E1,0.E0,0.E0));
#251=DIRECTION('',(1.E0,0.E0,0.E0));
#252=DIRECTION('',(0.E0,0.E0,1.E0));
#253=AXIS2_PLACEMENT_3D('',#250,#251,#252);
#254=CYLINDRICAL_SURFACE('',#253,1.943408023041E-1);
#255=ORIENTED_EDGE('',*,*,#240,.T.);
#257=ORIENTED_EDGE('',*,*,#256,.T.);
#258=ORIENTED_EDGE('',*,*,#243,.F.);
#259=ORIENTED_EDGE('',*,*,#214,.F.);
#260=EDGE_LOOP('',(#255,#257,#258,#259));
#261=FACE_OUTER_BOUND('',#260,.F.);
#262=ADVANCED_FACE('',(#261),#254,.T.);
#263=CARTESIAN_POINT('',(-2.019E1,0.E0,0.E0));
#264=DIRECTION('',(1.E0,0.E0,0.E0));
#265=DIRECTION('',(0.E0,0.E0,1.E0));
#266=AXIS2_PLACEMENT_3D('',#263,#264,#265);
#267=PLANE('',#266);
#268=ORIENTED_EDGE('',*,*,#256,.F.);
#269=ORIENTED_EDGE('',*,*,#245,.T.);
#270=EDGE_LOOP('',(#268,#269));
#271=FACE_OUTER_BOUND('',#270,.F.);
#272=ADVANCED_FACE('',(#271),#267,.F.);
#273=CARTESIAN_POINT('',(-2.2209E1,0.E0,0.E0));
#274=DIRECTION('',(1.E0,0.E0,0.E0));
#275=DIRECTION('',(0.E0,0.E0,1.E0));
#276=AXIS2_PLACEMENT_3D('',#273,#274,#275);
#277=CYLINDRICAL_SURFACE('',#276,1.14E0);
#279=ORIENTED_EDGE('',*,*,#278,.T.);
#280=ORIENTED_EDGE('',*,*,#202,.T.);
#282=ORIENTED_EDGE('',*,*,#281,.F.);
#284=ORIENTED_EDGE('',*,*,#283,.F.);
#285=EDGE_LOOP('',(#279,#280,#282,#284));
#286=FACE_OUTER_BOUND('',#285,.F.);
#287=ADVANCED_FACE('',(#286),#277,.T.);
#288=CARTESIAN_POINT('',(-2.2209E1,0.E0,0.E0));
#289=DIRECTION('',(1.E0,0.E0,0.E0));
#290=DIRECTION('',(0.E0,0.E0,1.E0));
#291=AXIS2_PLACEMENT_3D('',#288,#289,#290);
#292=CYLINDRICAL_SURFACE('',#291,1.14E0);
#293=ORIENTED_EDGE('',*,*,#278,.F.);
#295=ORIENTED_EDGE('',*,*,#294,.T.);
#296=ORIENTED_EDGE('',*,*,#281,.T.);
#297=ORIENTED_EDGE('',*,*,#184,.F.);
#298=EDGE_LOOP('',(#293,#295,#296,#297));
#299=FACE_OUTER_BOUND('',#298,.F.);
#300=ADVANCED_FACE('',(#299),#292,.T.);
#301=CARTESIAN_POINT('',(5.055219315122E0,0.E0,0.E0));
#302=DIRECTION('',(1.E0,0.E0,0.E0));
#303=DIRECTION('',(0.E0,0.E0,1.E0));
#304=AXIS2_PLACEMENT_3D('',#301,#302,#303);
#305=SPHERICAL_SURFACE('',#304,1.14E0);
#307=ORIENTED_EDGE('',*,*,#306,.F.);
#309=ORIENTED_EDGE('',*,*,#308,.T.);
#311=ORIENTED_EDGE('',*,*,#310,.T.);
#312=ORIENTED_EDGE('',*,*,#294,.F.);
#313=EDGE_LOOP('',(#307,#309,#311,#312));
#314=FACE_OUTER_BOUND('',#313,.F.);
#315=ADVANCED_FACE('',(#314),#305,.T.);
#316=CARTESIAN_POINT('',(5.055219315122E0,0.E0,0.E0));
#317=DIRECTION('',(1.E0,0.E0,0.E0));
#318=DIRECTION('',(0.E0,0.E0,1.E0));
#319=AXIS2_PLACEMENT_3D('',#316,#317,#318);
#320=SPHERICAL_SURFACE('',#319,1.14E0);
#321=ORIENTED_EDGE('',*,*,#306,.T.);
#322=ORIENTED_EDGE('',*,*,#283,.T.);
#323=ORIENTED_EDGE('',*,*,#310,.F.);
#325=ORIENTED_EDGE('',*,*,#324,.F.);
#326=EDGE_LOOP('',(#321,#322,#323,#325));
#327=FACE_OUTER_BOUND('',#326,.F.);
#328=ADVANCED_FACE('',(#327),#320,.T.);
#329=CARTESIAN_POINT('',(6.48E0,0.E0,0.E0));
#330=DIRECTION('',(1.E0,0.E0,0.E0));
#331=DIRECTION('',(0.E0,0.E0,1.E0));
#332=AXIS2_PLACEMENT_3D('',#329,#330,#331);
#333=SPHERICAL_SURFACE('',#332,1.14E0);
#335=ORIENTED_EDGE('',*,*,#334,.T.);
#336=ORIENTED_EDGE('',*,*,#324,.T.);
#338=ORIENTED_EDGE('',*,*,#337,.F.);
#340=ORIENTED_EDGE('',*,*,#339,.F.);
#341=EDGE_LOOP('',(#335,#336,#338,#340));
#342=FACE_OUTER_BOUND('',#341,.F.);
#343=ADVANCED_FACE('',(#342),#333,.T.);
#344=CARTESIAN_POINT('',(6.48E0,0.E0,0.E0));
#345=DIRECTION('',(1.E0,0.E0,0.E0));
#346=DIRECTION('',(0.E0,0.E0,1.E0));
#347=AXIS2_PLACEMENT_3D('',#344,#345,#346);
#348=SPHERICAL_SURFACE('',#347,1.14E0);
#349=ORIENTED_EDGE('',*,*,#334,.F.);
#351=ORIENTED_EDGE('',*,*,#350,.T.);
#352=ORIENTED_EDGE('',*,*,#337,.T.);
#353=ORIENTED_EDGE('',*,*,#308,.F.);
#354=EDGE_LOOP('',(#349,#351,#352,#353));
#355=FACE_OUTER_BOUND('',#354,.F.);
#356=ADVANCED_FACE('',(#355),#348,.T.);
#357=CARTESIAN_POINT('',(-2.2209E1,0.E0,0.E0));
#358=DIRECTION('',(1.E0,0.E0,0.E0));
#359=DIRECTION('',(0.E0,0.E0,1.E0));
#360=AXIS2_PLACEMENT_3D('',#357,#358,#359);
#361=CYLINDRICAL_SURFACE('',#360,1.943408023041E-1);
#363=ORIENTED_EDGE('',*,*,#362,.F.);
#365=ORIENTED_EDGE('',*,*,#364,.T.);
#367=ORIENTED_EDGE('',*,*,#366,.T.);
#368=ORIENTED_EDGE('',*,*,#350,.F.);
#369=EDGE_LOOP('',(#363,#365,#367,#368));
#370=FACE_OUTER_BOUND('',#369,.F.);
#371=ADVANCED_FACE('',(#370),#361,.T.);
#372=CARTESIAN_POINT('',(-2.2209E1,0.E0,0.E0));
#373=DIRECTION('',(1.E0,0.E0,0.E0));
#374=DIRECTION('',(0.E0,0.E0,1.E0));
#375=AXIS2_PLACEMENT_3D('',#372,#373,#374);
#376=CYLINDRICAL_SURFACE('',#375,1.943408023041E-1);
#377=ORIENTED_EDGE('',*,*,#362,.T.);
#378=ORIENTED_EDGE('',*,*,#339,.T.);
#379=ORIENTED_EDGE('',*,*,#366,.F.);
#381=ORIENTED_EDGE('',*,*,#380,.F.);
#382=EDGE_LOOP('',(#377,#378,#379,#381));
#383=FACE_OUTER_BOUND('',#382,.F.);
#384=ADVANCED_FACE('',(#383),#376,.T.);
#385=CARTESIAN_POINT('',(2.019E1,0.E0,0.E0));
#386=DIRECTION('',(1.E0,0.E0,0.E0));
#387=DIRECTION('',(0.E0,0.E0,1.E0));
#388=AXIS2_PLACEMENT_3D('',#385,#386,#387);
#389=PLANE('',#388);
#390=ORIENTED_EDGE('',*,*,#380,.T.);
#391=ORIENTED_EDGE('',*,*,#364,.F.);
#392=EDGE_LOOP('',(#390,#391));
#393=FACE_OUTER_BOUND('',#392,.F.);
#394=ADVANCED_FACE('',(#393),#389,.T.);
#398=DIMENSIONAL_EXPONENTS(0.E0,0.E0,0.E0,0.E0,0.E0,0.E0,0.E0);
#400=PLANE_ANGLE_MEASURE_WITH_UNIT(PLANE_ANGLE_MEASURE(1.745329251994E-2),#399);
#401=(CONVERSION_BASED_UNIT('DEGREE',#400)NAMED_UNIT(*)PLANE_ANGLE_UNIT());
#403=UNCERTAINTY_MEASURE_WITH_UNIT(LENGTH_MEASURE(1.E-2),#397,'closure',
'Maximum model space distance between geometric entities at asserted connectivities');
#404=(GEOMETRIC_REPRESENTATION_CONTEXT(3)GLOBAL_UNCERTAINTY_ASSIGNED_CONTEXT((
#403))GLOBAL_UNIT_ASSIGNED_CONTEXT((#397,#401,#402))REPRESENTATION_CONTEXT
('ID1','3'));
#406=APPLICATION_CONTEXT(
'CONFIGURATION CONTROLLED 3D DESIGNS OF MECHANICAL PARTS AND ASSEMBLIES');
#407=APPLICATION_PROTOCOL_DEFINITION('international standard',
'config_control_design',1994,#406);
#408=DESIGN_CONTEXT('',#406,'design');
#409=MECHANICAL_CONTEXT('',#406,'mechanical');
#410=PRODUCT('REED_SWITCH','REED_SWITCH','NOT SPECIFIED',(#409));
#411=PRODUCT_DEFINITION_FORMATION_WITH_SPECIFIED_SOURCE('1','LAST_VERSION',#410,
.MADE.);
#415=PRODUCT_CATEGORY('part','');
#416=PRODUCT_RELATED_PRODUCT_CATEGORY('detail','',(#410));
#417=PRODUCT_CATEGORY_RELATIONSHIP('','',#415,#416);
#418=SECURITY_CLASSIFICATION_LEVEL('unclassified');
#419=SECURITY_CLASSIFICATION('','',#418);
#420=CC_DESIGN_SECURITY_CLASSIFICATION(#419,(#411));
#421=APPROVAL_STATUS('approved');
#422=APPROVAL(#421,'');
#423=CC_DESIGN_APPROVAL(#422,(#419,#411,#412));
#424=CALENDAR_DATE(122,26,12);
#425=COORDINATED_UNIVERSAL_TIME_OFFSET(2,0,.AHEAD.);
#426=LOCAL_TIME(22,42,8.E0,#425);
#427=DATE_AND_TIME(#424,#426);
#428=APPROVAL_DATE_TIME(#427,#422);
#429=DATE_TIME_ROLE('creation_date');
#430=CC_DESIGN_DATE_AND_TIME_ASSIGNMENT(#427,#429,(#412));
#431=DATE_TIME_ROLE('classification_date');
#432=CC_DESIGN_DATE_AND_TIME_ASSIGNMENT(#427,#431,(#419));
#433=PERSON('UNSPECIFIED','UNSPECIFIED',$,$,$,$);
#434=ORGANIZATION('UNSPECIFIED','UNSPECIFIED','UNSPECIFIED');
#435=PERSON_AND_ORGANIZATION(#433,#434);
#436=APPROVAL_ROLE('approver');
#437=APPROVAL_PERSON_ORGANIZATION(#435,#422,#436);
#438=PERSON_AND_ORGANIZATION_ROLE('creator');
#439=CC_DESIGN_PERSON_AND_ORGANIZATION_ASSIGNMENT(#435,#438,(#411,#412));
#440=PERSON_AND_ORGANIZATION_ROLE('design_supplier');
#441=CC_DESIGN_PERSON_AND_ORGANIZATION_ASSIGNMENT(#435,#440,(#411));
#442=PERSON_AND_ORGANIZATION_ROLE('classification_officer');
#443=CC_DESIGN_PERSON_AND_ORGANIZATION_ASSIGNMENT(#435,#442,(#419));
#444=PERSON_AND_ORGANIZATION_ROLE('design_owner');
#445=CC_DESIGN_PERSON_AND_ORGANIZATION_ASSIGNMENT(#435,#444,(#410));
#5=CIRCLE('',#4,1.14E0);
#10=CIRCLE('',#9,1.14E0);
#15=CIRCLE('',#14,1.14E0);
#20=CIRCLE('',#19,1.14E0);
#25=CIRCLE('',#24,1.14E0);
#30=CIRCLE('',#29,1.14E0);
#35=CIRCLE('',#34,8.9E-1);
#40=CIRCLE('',#39,8.9E-1);
#45=CIRCLE('',#44,1.943408023041E-1);
#58=CIRCLE('',#57,1.943408023041E-1);
#63=CIRCLE('',#62,1.943408023041E-1);
#68=CIRCLE('',#67,1.943408023041E-1);
#81=CIRCLE('',#80,1.14E0);
#86=CIRCLE('',#85,1.14E0);
#91=CIRCLE('',#90,8.9E-1);
#96=CIRCLE('',#95,1.14E0);
#101=CIRCLE('',#100,1.14E0);
#106=CIRCLE('',#105,8.9E-1);
#111=CIRCLE('',#110,1.14E0);
#116=CIRCLE('',#115,1.14E0);
#121=CIRCLE('',#120,1.943408023041E-1);
#126=CIRCLE('',#125,1.943408023041E-1);
#131=CIRCLE('',#130,1.943408023041E-1);
#144=CIRCLE('',#143,1.943408023041E-1);
#182=EDGE_CURVE('',#147,#148,#10,.T.);
#184=EDGE_CURVE('',#147,#163,#5,.T.);
#186=EDGE_CURVE('',#163,#164,#15,.T.);
#188=EDGE_CURVE('',#148,#164,#40,.T.);
#199=EDGE_CURVE('',#148,#164,#35,.T.);
#202=EDGE_CURVE('',#147,#163,#20,.T.);
#212=EDGE_CURVE('',#148,#150,#25,.T.);
#214=EDGE_CURVE('',#150,#166,#58,.T.);
#216=EDGE_CURVE('',#164,#166,#30,.T.);
#230=EDGE_CURVE('',#150,#166,#45,.T.);
#240=EDGE_CURVE('',#150,#152,#49,.T.);
#243=EDGE_CURVE('',#166,#168,#53,.T.);
#245=EDGE_CURVE('',#152,#168,#68,.T.);
#256=EDGE_CURVE('',#152,#168,#63,.T.);
#278=EDGE_CURVE('',#160,#147,#72,.T.);
#281=EDGE_CURVE('',#176,#163,#76,.T.);
#283=EDGE_CURVE('',#160,#176,#81,.T.);
#294=EDGE_CURVE('',#160,#176,#86,.T.);
#306=EDGE_CURVE('',#158,#160,#96,.T.);
#308=EDGE_CURVE('',#158,#174,#91,.T.);
#310=EDGE_CURVE('',#174,#176,#101,.T.);
#324=EDGE_CURVE('',#158,#174,#106,.T.);
#334=EDGE_CURVE('',#156,#158,#111,.T.);
#337=EDGE_CURVE('',#172,#174,#116,.T.);
#339=EDGE_CURVE('',#156,#172,#121,.T.);
#350=EDGE_CURVE('',#156,#172,#126,.T.);
#362=EDGE_CURVE('',#155,#156,#135,.T.);
#364=EDGE_CURVE('',#155,#171,#131,.T.);
#366=EDGE_CURVE('',#171,#172,#139,.T.);
#380=EDGE_CURVE('',#155,#171,#144,.T.);
#395=CLOSED_SHELL('',(#192,#206,#221,#234,#249,#262,#272,#287,#300,#315,#328,
#343,#356,#371,#384,#394));
#396=MANIFOLD_SOLID_BREP('',#395);
#397=(LENGTH_UNIT()NAMED_UNIT(*)SI_UNIT(.MILLI.,.METRE.));
#399=(NAMED_UNIT(*)PLANE_ANGLE_UNIT()SI_UNIT($,.RADIAN.));
#402=(NAMED_UNIT(*)SI_UNIT($,.STERADIAN.)SOLID_ANGLE_UNIT());
#405=ADVANCED_BREP_SHAPE_REPRESENTATION('',(#396),#404);
#412=PRODUCT_DEFINITION('design','',#411,#408);
#413=PRODUCT_DEFINITION_SHAPE('','SHAPE FOR REED_SWITCH.',#412);
#414=SHAPE_DEFINITION_REPRESENTATION(#413,#405);
ENDSEC;
END-ISO-10303-21;
