ISO-10303-21;
HEADER;
FILE_DESCRIPTION(('FreeCAD Model'),'2;1');
FILE_NAME(
'/Users/bruce/PROJECT/CAD_Projects/Electronic_Parts/Wires/Jumper-Wire_
8mm_Blue.step','2020-06-14T14:02:09',('kicad StepUp'),('ksu MCAD'),
  'Open CASCADE STEP processor 7.4','FreeCAD','Unknown');
FILE_SCHEMA(('AUTOMOTIVE_DESIGN { 1 0 10303 214 1 1 1 1 }'));
ENDSEC;
DATA;
#1 = APPLICATION_PROTOCOL_DEFINITION('international standard',
  'automotive_design',2000,#2);
#2 = APPLICATION_CONTEXT(
  'core data for automotive mechanical design processes');
#3 = SHAPE_DEFINITION_REPRESENTATION(#4,#10);
#4 = PRODUCT_DEFINITION_SHAPE('','',#5);
#5 = PRODUCT_DEFINITION('design','',#6,#9);
#6 = PRODUCT_DEFINITION_FORMATION('','',#7);
#7 = PRODUCT('Jumper-Wire_8mm_Blue','Jumper-Wire_8mm_Blue','',(#8));
#8 = PRODUCT_CONTEXT('',#2,'mechanical');
#9 = PRODUCT_DEFINITION_CONTEXT('part definition',#2,'design');
#10 = ADVANCED_BREP_SHAPE_REPRESENTATION('',(#11,#15),#260);
#11 = AXIS2_PLACEMENT_3D('',#12,#13,#14);
#12 = CARTESIAN_POINT('',(0.,0.,0.));
#13 = DIRECTION('',(0.,0.,1.));
#14 = DIRECTION('',(1.,0.,-0.));
#15 = MANIFOLD_SOLID_BREP('',#16);
#16 = CLOSED_SHELL('',(#17,#45,#70,#95,#121,#130,#155,#181,#206,#226,
    #251));
#17 = ADVANCED_FACE('',(#18,#29),#40,.F.);
#18 = FACE_BOUND('',#19,.F.);
#19 = EDGE_LOOP('',(#20));
#20 = ORIENTED_EDGE('',*,*,#21,.T.);
#21 = EDGE_CURVE('',#22,#22,#24,.T.);
#22 = VERTEX_POINT('',#23);
#23 = CARTESIAN_POINT('',(0.5,0.,10.));
#24 = CIRCLE('',#25,0.5);
#25 = AXIS2_PLACEMENT_3D('',#26,#27,#28);
#26 = CARTESIAN_POINT('',(0.,0.,10.));
#27 = DIRECTION('',(0.,0.,1.));
#28 = DIRECTION('',(1.,0.,0.));
#29 = FACE_BOUND('',#30,.F.);
#30 = EDGE_LOOP('',(#31));
#31 = ORIENTED_EDGE('',*,*,#32,.T.);
#32 = EDGE_CURVE('',#33,#33,#35,.T.);
#33 = VERTEX_POINT('',#34);
#34 = CARTESIAN_POINT('',(0.25,0.,10.));
#35 = CIRCLE('',#36,0.25);
#36 = AXIS2_PLACEMENT_3D('',#37,#38,#39);
#37 = CARTESIAN_POINT('',(0.,0.,10.));
#38 = DIRECTION('',(0.,0.,-1.));
#39 = DIRECTION('',(1.,0.,0.));
#40 = PLANE('',#41);
#41 = AXIS2_PLACEMENT_3D('',#42,#43,#44);
#42 = CARTESIAN_POINT('',(-3.E-17,7.E-17,10.));
#43 = DIRECTION('',(0.,0.,1.));
#44 = DIRECTION('',(1.,0.,0.));
#45 = ADVANCED_FACE('',(#46),#65,.T.);
#46 = FACE_BOUND('',#47,.T.);
#47 = EDGE_LOOP('',(#48,#56,#63,#64));
#48 = ORIENTED_EDGE('',*,*,#49,.T.);
#49 = EDGE_CURVE('',#22,#50,#52,.T.);
#50 = VERTEX_POINT('',#51);
#51 = CARTESIAN_POINT('',(0.5,-3.08E-13,12.99378903513));
#52 = LINE('',#53,#54);
#53 = CARTESIAN_POINT('',(0.5,0.,10.));
#54 = VECTOR('',#55,1.);
#55 = DIRECTION('',(0.,-1.0303E-13,1.));
#56 = ORIENTED_EDGE('',*,*,#57,.F.);
#57 = EDGE_CURVE('',#50,#50,#58,.T.);
#58 = CIRCLE('',#59,0.5);
#59 = AXIS2_PLACEMENT_3D('',#60,#61,#62);
#60 = CARTESIAN_POINT('',(0.,-3.0845E-13,12.99378903513));
#61 = DIRECTION('',(0.,-1.0303E-13,1.));
#62 = DIRECTION('',(1.,0.,0.));
#63 = ORIENTED_EDGE('',*,*,#49,.F.);
#64 = ORIENTED_EDGE('',*,*,#21,.T.);
#65 = CYLINDRICAL_SURFACE('',#66,0.5);
#66 = AXIS2_PLACEMENT_3D('',#67,#68,#69);
#67 = CARTESIAN_POINT('',(0.,0.,10.));
#68 = DIRECTION('',(0.,-1.0303E-13,1.));
#69 = DIRECTION('',(1.,0.,0.));
#70 = ADVANCED_FACE('',(#71),#90,.T.);
#71 = FACE_BOUND('',#72,.F.);
#72 = EDGE_LOOP('',(#73,#81,#88,#89));
#73 = ORIENTED_EDGE('',*,*,#74,.T.);
#74 = EDGE_CURVE('',#33,#75,#77,.T.);
#75 = VERTEX_POINT('',#76);
#76 = CARTESIAN_POINT('',(0.25,0.,4.));
#77 = LINE('',#78,#79);
#78 = CARTESIAN_POINT('',(0.25,0.,10.));
#79 = VECTOR('',#80,1.);
#80 = DIRECTION('',(0.,0.,-1.));
#81 = ORIENTED_EDGE('',*,*,#82,.T.);
#82 = EDGE_CURVE('',#75,#75,#83,.T.);
#83 = CIRCLE('',#84,0.25);
#84 = AXIS2_PLACEMENT_3D('',#85,#86,#87);
#85 = CARTESIAN_POINT('',(0.,0.,4.));
#86 = DIRECTION('',(0.,0.,-1.));
#87 = DIRECTION('',(1.,0.,0.));
#88 = ORIENTED_EDGE('',*,*,#74,.F.);
#89 = ORIENTED_EDGE('',*,*,#32,.F.);
#90 = CYLINDRICAL_SURFACE('',#91,0.25);
#91 = AXIS2_PLACEMENT_3D('',#92,#93,#94);
#92 = CARTESIAN_POINT('',(0.,0.,10.));
#93 = DIRECTION('',(0.,0.,1.));
#94 = DIRECTION('',(1.,0.,0.));
#95 = ADVANCED_FACE('',(#96),#116,.T.);
#96 = FACE_BOUND('',#97,.T.);
#97 = EDGE_LOOP('',(#98,#107,#114,#115));
#98 = ORIENTED_EDGE('',*,*,#99,.T.);
#99 = EDGE_CURVE('',#50,#100,#102,.T.);
#100 = VERTEX_POINT('',#101);
#101 = CARTESIAN_POINT('',(2.,-4.63E-13,14.49378903513));
#102 = CIRCLE('',#103,1.5);
#103 = AXIS2_PLACEMENT_3D('',#104,#105,#106);
#104 = CARTESIAN_POINT('',(2.,-2.5675E-13,12.99378903513));
#105 = DIRECTION('',(-0.,1.,1.0303E-13));
#106 = DIRECTION('',(1.,0.,0.));
#107 = ORIENTED_EDGE('',*,*,#108,.T.);
#108 = EDGE_CURVE('',#100,#100,#109,.T.);
#109 = CIRCLE('',#110,0.5);
#110 = AXIS2_PLACEMENT_3D('',#111,#112,#113);
#111 = CARTESIAN_POINT('',(2.,-5.145E-13,14.99378903513));
#112 = DIRECTION('',(-1.,0.,-1.0321E-13));
#113 = DIRECTION('',(-1.0321E-13,-1.0303E-13,1.));
#114 = ORIENTED_EDGE('',*,*,#99,.F.);
#115 = ORIENTED_EDGE('',*,*,#57,.T.);
#116 = TOROIDAL_SURFACE('',#117,2.,0.5);
#117 = AXIS2_PLACEMENT_3D('',#118,#119,#120);
#118 = CARTESIAN_POINT('',(2.,-3.0845E-13,12.99378903513));
#119 = DIRECTION('',(0.,1.,1.0303E-13));
#120 = DIRECTION('',(1.,0.,0.));
#121 = ADVANCED_FACE('',(#122),#125,.T.);
#122 = FACE_BOUND('',#123,.T.);
#123 = EDGE_LOOP('',(#124));
#124 = ORIENTED_EDGE('',*,*,#82,.T.);
#125 = PLANE('',#126);
#126 = AXIS2_PLACEMENT_3D('',#127,#128,#129);
#127 = CARTESIAN_POINT('',(-2.E-17,-3.E-17,4.));
#128 = DIRECTION('',(-0.,-0.,-1.));
#129 = DIRECTION('',(-1.,0.,0.));
#130 = ADVANCED_FACE('',(#131),#150,.T.);
#131 = FACE_BOUND('',#132,.T.);
#132 = EDGE_LOOP('',(#133,#141,#148,#149));
#133 = ORIENTED_EDGE('',*,*,#134,.T.);
#134 = EDGE_CURVE('',#100,#135,#137,.T.);
#135 = VERTEX_POINT('',#136);
#136 = CARTESIAN_POINT('',(6.,-4.63E-13,14.49378903513));
#137 = LINE('',#138,#139);
#138 = CARTESIAN_POINT('',(2.,-4.6299E-13,14.49378903513));
#139 = VECTOR('',#140,1.);
#140 = DIRECTION('',(1.,0.,0.));
#141 = ORIENTED_EDGE('',*,*,#142,.F.);
#142 = EDGE_CURVE('',#135,#135,#143,.T.);
#143 = CIRCLE('',#144,0.5);
#144 = AXIS2_PLACEMENT_3D('',#145,#146,#147);
#145 = CARTESIAN_POINT('',(6.,-5.145E-13,14.99378903513));
#146 = DIRECTION('',(1.,-0.,0.));
#147 = DIRECTION('',(0.,1.0303E-13,-1.));
#148 = ORIENTED_EDGE('',*,*,#134,.F.);
#149 = ORIENTED_EDGE('',*,*,#108,.F.);
#150 = CYLINDRICAL_SURFACE('',#151,0.5);
#151 = AXIS2_PLACEMENT_3D('',#152,#153,#154);
#152 = CARTESIAN_POINT('',(2.,-5.145E-13,14.99378903513));
#153 = DIRECTION('',(1.,0.,0.));
#154 = DIRECTION('',(0.,1.0303E-13,-1.));
#155 = ADVANCED_FACE('',(#156),#176,.T.);
#156 = FACE_BOUND('',#157,.T.);
#157 = EDGE_LOOP('',(#158,#167,#174,#175));
#158 = ORIENTED_EDGE('',*,*,#159,.T.);
#159 = EDGE_CURVE('',#135,#160,#162,.T.);
#160 = VERTEX_POINT('',#161);
#161 = CARTESIAN_POINT('',(7.5,-3.08E-13,12.99378903513));
#162 = CIRCLE('',#163,1.5);
#163 = AXIS2_PLACEMENT_3D('',#164,#165,#166);
#164 = CARTESIAN_POINT('',(6.,-2.5675E-13,12.99378903513));
#165 = DIRECTION('',(-0.,1.,1.0303E-13));
#166 = DIRECTION('',(1.,0.,0.));
#167 = ORIENTED_EDGE('',*,*,#168,.T.);
#168 = EDGE_CURVE('',#160,#160,#169,.T.);
#169 = CIRCLE('',#170,0.5);
#170 = AXIS2_PLACEMENT_3D('',#171,#172,#173);
#171 = CARTESIAN_POINT('',(8.,-3.0845E-13,12.99378903513));
#172 = DIRECTION('',(-1.0416E-13,-1.0303E-13,1.));
#173 = DIRECTION('',(1.,0.,1.0416E-13));
#174 = ORIENTED_EDGE('',*,*,#159,.F.);
#175 = ORIENTED_EDGE('',*,*,#142,.T.);
#176 = TOROIDAL_SURFACE('',#177,2.,0.5);
#177 = AXIS2_PLACEMENT_3D('',#178,#179,#180);
#178 = CARTESIAN_POINT('',(6.,-3.0845E-13,12.99378903513));
#179 = DIRECTION('',(0.,1.,1.0303E-13));
#180 = DIRECTION('',(1.,0.,0.));
#181 = ADVANCED_FACE('',(#182),#201,.T.);
#182 = FACE_BOUND('',#183,.T.);
#183 = EDGE_LOOP('',(#184,#192,#199,#200));
#184 = ORIENTED_EDGE('',*,*,#185,.T.);
#185 = EDGE_CURVE('',#160,#186,#188,.T.);
#186 = VERTEX_POINT('',#187);
#187 = CARTESIAN_POINT('',(7.5,0.,10.));
#188 = LINE('',#189,#190);
#189 = CARTESIAN_POINT('',(7.5,-3.0845E-13,12.99378903513));
#190 = VECTOR('',#191,1.);
#191 = DIRECTION('',(0.,1.0303E-13,-1.));
#192 = ORIENTED_EDGE('',*,*,#193,.F.);
#193 = EDGE_CURVE('',#186,#186,#194,.T.);
#194 = CIRCLE('',#195,0.5);
#195 = AXIS2_PLACEMENT_3D('',#196,#197,#198);
#196 = CARTESIAN_POINT('',(8.,0.,10.));
#197 = DIRECTION('',(1.2E-16,2.0606E-13,-1.));
#198 = DIRECTION('',(-1.,0.,-1.2E-16));
#199 = ORIENTED_EDGE('',*,*,#185,.F.);
#200 = ORIENTED_EDGE('',*,*,#168,.F.);
#201 = CYLINDRICAL_SURFACE('',#202,0.5);
#202 = AXIS2_PLACEMENT_3D('',#203,#204,#205);
#203 = CARTESIAN_POINT('',(8.,-3.0845E-13,12.99378903513));
#204 = DIRECTION('',(0.,1.0303E-13,-1.));
#205 = DIRECTION('',(-1.,0.,0.));
#206 = ADVANCED_FACE('',(#207,#210),#221,.T.);
#207 = FACE_BOUND('',#208,.T.);
#208 = EDGE_LOOP('',(#209));
#209 = ORIENTED_EDGE('',*,*,#193,.T.);
#210 = FACE_BOUND('',#211,.T.);
#211 = EDGE_LOOP('',(#212));
#212 = ORIENTED_EDGE('',*,*,#213,.F.);
#213 = EDGE_CURVE('',#214,#214,#216,.T.);
#214 = VERTEX_POINT('',#215);
#215 = CARTESIAN_POINT('',(8.25,0.,10.));
#216 = CIRCLE('',#217,0.25);
#217 = AXIS2_PLACEMENT_3D('',#218,#219,#220);
#218 = CARTESIAN_POINT('',(8.,0.,10.));
#219 = DIRECTION('',(0.,2.06E-13,-1.));
#220 = DIRECTION('',(1.,0.,0.));
#221 = PLANE('',#222);
#222 = AXIS2_PLACEMENT_3D('',#223,#224,#225);
#223 = CARTESIAN_POINT('',(8.,7.E-17,10.));
#224 = DIRECTION('',(1.2E-16,2.0606E-13,-1.));
#225 = DIRECTION('',(0.,-1.,-2.0606E-13));
#226 = ADVANCED_FACE('',(#227),#246,.T.);
#227 = FACE_BOUND('',#228,.F.);
#228 = EDGE_LOOP('',(#229,#237,#244,#245));
#229 = ORIENTED_EDGE('',*,*,#230,.T.);
#230 = EDGE_CURVE('',#214,#231,#233,.T.);
#231 = VERTEX_POINT('',#232);
#232 = CARTESIAN_POINT('',(8.25,1.236E-12,4.));
#233 = LINE('',#234,#235);
#234 = CARTESIAN_POINT('',(8.25,0.,10.));
#235 = VECTOR('',#236,1.);
#236 = DIRECTION('',(1.2E-16,2.0606E-13,-1.));
#237 = ORIENTED_EDGE('',*,*,#238,.T.);
#238 = EDGE_CURVE('',#231,#231,#239,.T.);
#239 = CIRCLE('',#240,0.25);
#240 = AXIS2_PLACEMENT_3D('',#241,#242,#243);
#241 = CARTESIAN_POINT('',(8.,1.236E-12,4.));
#242 = DIRECTION('',(0.,2.06E-13,-1.));
#243 = DIRECTION('',(1.,0.,0.));
#244 = ORIENTED_EDGE('',*,*,#230,.F.);
#245 = ORIENTED_EDGE('',*,*,#213,.F.);
#246 = CYLINDRICAL_SURFACE('',#247,0.25);
#247 = AXIS2_PLACEMENT_3D('',#248,#249,#250);
#248 = CARTESIAN_POINT('',(8.,0.,10.));
#249 = DIRECTION('',(-1.2E-16,-2.0606E-13,1.));
#250 = DIRECTION('',(1.,0.,1.2E-16));
#251 = ADVANCED_FACE('',(#252),#255,.T.);
#252 = FACE_BOUND('',#253,.T.);
#253 = EDGE_LOOP('',(#254));
#254 = ORIENTED_EDGE('',*,*,#238,.T.);
#255 = PLANE('',#256);
#256 = AXIS2_PLACEMENT_3D('',#257,#258,#259);
#257 = CARTESIAN_POINT('',(8.,1.23597E-12,4.));
#258 = DIRECTION('',(2.37E-15,2.0922E-13,-1.));
#259 = DIRECTION('',(0.,-1.,-2.0922E-13));
#260 = ( GEOMETRIC_REPRESENTATION_CONTEXT(3) 
GLOBAL_UNCERTAINTY_ASSIGNED_CONTEXT((#264)) GLOBAL_UNIT_ASSIGNED_CONTEXT
((#261,#262,#263)) REPRESENTATION_CONTEXT('Context #1',
  '3D Context with UNIT and UNCERTAINTY') );
#261 = ( LENGTH_UNIT() NAMED_UNIT(*) SI_UNIT(.MILLI.,.METRE.) );
#262 = ( NAMED_UNIT(*) PLANE_ANGLE_UNIT() SI_UNIT($,.RADIAN.) );
#263 = ( NAMED_UNIT(*) SI_UNIT($,.STERADIAN.) SOLID_ANGLE_UNIT() );
#264 = UNCERTAINTY_MEASURE_WITH_UNIT(LENGTH_MEASURE(1.E-07),#261,
  'distance_accuracy_value','confusion accuracy');
#265 = PRODUCT_RELATED_PRODUCT_CATEGORY('part',$,(#7));
#266 = MECHANICAL_DESIGN_GEOMETRIC_PRESENTATION_REPRESENTATION('',(#267,
    #278,#286,#294,#301,#308,#315,#322,#329,#336,#343,#350),#260);
#267 = STYLED_ITEM('color',(#268),#15);
#268 = PRESENTATION_STYLE_ASSIGNMENT((#269,#275));
#269 = SURFACE_STYLE_USAGE(.BOTH.,#270);
#270 = SURFACE_SIDE_STYLE('',(#271));
#271 = SURFACE_STYLE_FILL_AREA(#272);
#272 = FILL_AREA_STYLE('',(#273));
#273 = FILL_AREA_STYLE_COLOUR('',#274);
#274 = COLOUR_RGB('',0.800000011921,0.800000011921,0.800000011921);
#275 = CURVE_STYLE('',#276,POSITIVE_LENGTH_MEASURE(0.1),#277);
#276 = DRAUGHTING_PRE_DEFINED_CURVE_FONT('continuous');
#277 = COLOUR_RGB('',9.803921729326E-02,9.803921729326E-02,
  9.803921729326E-02);
#278 = OVER_RIDING_STYLED_ITEM('overriding color',(#279),#17,#267);
#279 = PRESENTATION_STYLE_ASSIGNMENT((#280));
#280 = SURFACE_STYLE_USAGE(.BOTH.,#281);
#281 = SURFACE_SIDE_STYLE('',(#282));
#282 = SURFACE_STYLE_FILL_AREA(#283);
#283 = FILL_AREA_STYLE('',(#284));
#284 = FILL_AREA_STYLE_COLOUR('',#285);
#285 = COLOUR_RGB('',0.701960802078,0.701960802078,0.701960802078);
#286 = OVER_RIDING_STYLED_ITEM('overriding color',(#287),#45,#267);
#287 = PRESENTATION_STYLE_ASSIGNMENT((#288));
#288 = SURFACE_STYLE_USAGE(.BOTH.,#289);
#289 = SURFACE_SIDE_STYLE('',(#290));
#290 = SURFACE_STYLE_FILL_AREA(#291);
#291 = FILL_AREA_STYLE('',(#292));
#292 = FILL_AREA_STYLE_COLOUR('',#293);
#293 = COLOUR_RGB('',0.,0.333333343267,1.);
#294 = OVER_RIDING_STYLED_ITEM('overriding color',(#295),#70,#267);
#295 = PRESENTATION_STYLE_ASSIGNMENT((#296));
#296 = SURFACE_STYLE_USAGE(.BOTH.,#297);
#297 = SURFACE_SIDE_STYLE('',(#298));
#298 = SURFACE_STYLE_FILL_AREA(#299);
#299 = FILL_AREA_STYLE('',(#300));
#300 = FILL_AREA_STYLE_COLOUR('',#285);
#301 = OVER_RIDING_STYLED_ITEM('overriding color',(#302),#95,#267);
#302 = PRESENTATION_STYLE_ASSIGNMENT((#303));
#303 = SURFACE_STYLE_USAGE(.BOTH.,#304);
#304 = SURFACE_SIDE_STYLE('',(#305));
#305 = SURFACE_STYLE_FILL_AREA(#306);
#306 = FILL_AREA_STYLE('',(#307));
#307 = FILL_AREA_STYLE_COLOUR('',#293);
#308 = OVER_RIDING_STYLED_ITEM('overriding color',(#309),#121,#267);
#309 = PRESENTATION_STYLE_ASSIGNMENT((#310));
#310 = SURFACE_STYLE_USAGE(.BOTH.,#311);
#311 = SURFACE_SIDE_STYLE('',(#312));
#312 = SURFACE_STYLE_FILL_AREA(#313);
#313 = FILL_AREA_STYLE('',(#314));
#314 = FILL_AREA_STYLE_COLOUR('',#285);
#315 = OVER_RIDING_STYLED_ITEM('overriding color',(#316),#130,#267);
#316 = PRESENTATION_STYLE_ASSIGNMENT((#317));
#317 = SURFACE_STYLE_USAGE(.BOTH.,#318);
#318 = SURFACE_SIDE_STYLE('',(#319));
#319 = SURFACE_STYLE_FILL_AREA(#320);
#320 = FILL_AREA_STYLE('',(#321));
#321 = FILL_AREA_STYLE_COLOUR('',#293);
#322 = OVER_RIDING_STYLED_ITEM('overriding color',(#323),#155,#267);
#323 = PRESENTATION_STYLE_ASSIGNMENT((#324));
#324 = SURFACE_STYLE_USAGE(.BOTH.,#325);
#325 = SURFACE_SIDE_STYLE('',(#326));
#326 = SURFACE_STYLE_FILL_AREA(#327);
#327 = FILL_AREA_STYLE('',(#328));
#328 = FILL_AREA_STYLE_COLOUR('',#293);
#329 = OVER_RIDING_STYLED_ITEM('overriding color',(#330),#181,#267);
#330 = PRESENTATION_STYLE_ASSIGNMENT((#331));
#331 = SURFACE_STYLE_USAGE(.BOTH.,#332);
#332 = SURFACE_SIDE_STYLE('',(#333));
#333 = SURFACE_STYLE_FILL_AREA(#334);
#334 = FILL_AREA_STYLE('',(#335));
#335 = FILL_AREA_STYLE_COLOUR('',#293);
#336 = OVER_RIDING_STYLED_ITEM('overriding color',(#337),#206,#267);
#337 = PRESENTATION_STYLE_ASSIGNMENT((#338));
#338 = SURFACE_STYLE_USAGE(.BOTH.,#339);
#339 = SURFACE_SIDE_STYLE('',(#340));
#340 = SURFACE_STYLE_FILL_AREA(#341);
#341 = FILL_AREA_STYLE('',(#342));
#342 = FILL_AREA_STYLE_COLOUR('',#285);
#343 = OVER_RIDING_STYLED_ITEM('overriding color',(#344),#226,#267);
#344 = PRESENTATION_STYLE_ASSIGNMENT((#345));
#345 = SURFACE_STYLE_USAGE(.BOTH.,#346);
#346 = SURFACE_SIDE_STYLE('',(#347));
#347 = SURFACE_STYLE_FILL_AREA(#348);
#348 = FILL_AREA_STYLE('',(#349));
#349 = FILL_AREA_STYLE_COLOUR('',#285);
#350 = OVER_RIDING_STYLED_ITEM('overriding color',(#351),#251,#267);
#351 = PRESENTATION_STYLE_ASSIGNMENT((#352));
#352 = SURFACE_STYLE_USAGE(.BOTH.,#353);
#353 = SURFACE_SIDE_STYLE('',(#354));
#354 = SURFACE_STYLE_FILL_AREA(#355);
#355 = FILL_AREA_STYLE('',(#356));
#356 = FILL_AREA_STYLE_COLOUR('',#285);
ENDSEC;
END-ISO-10303-21;
