0
SECTION
2
HEADER
9
$INSUNITS
70
4
9
$ACADVER
1
AC1014
9
$HANDSEED
5
FFFF
0
ENDSEC
0
SECTION
2
TABLES
0
TABLE
2
VPORT
5
8
100
AcDbSymbolTable
0
ENDTAB
0
TABLE
2
LTYPE
5
5
100
AcDbSymbolTable
0
LTYPE
5
14
100
AcDbSymbolTableRecord
100
AcDbLinetypeTableRecord
2
BYBLOCK
70
0
0
LTYPE
5
15
100
AcDbSymbolTableRecord
100
AcDbLinetypeTableRecord
2
BYLAYER
70
0
0
ENDTAB
0
TABLE
2
LAYER
5
2
100
AcDbSymbolTable
70
2
0
LAYER
5
50
100
AcDbSymbolTableRecord
100
AcDbLayerTableRecord
2
0
70
0
6
CONTINUOUS
0
ENDTAB
0
TABLE
2
STYLE
5
3
100
AcDbSymbolTable
70
1
0
STYLE
5
11
100
AcDbSymbolTableRecord
100
AcDbTextStyleTableRecord
2
STANDARD
70
0
0
ENDTAB
0
TABLE
2
VIEW
5
6
100
AcDbSymbolTable
70
0
0
ENDTAB
0
TABLE
2
UCS
5
7
100
AcDbSymbolTable
70
0
0
ENDTAB
0
TABLE
2
APPID
5
9
100
AcDbSymbolTable
70
2
0
APPID
5
12
100
AcDbSymbolTableRecord
100
AcDbRegAppTableRecord
2
ACAD
70
0
0
ENDTAB
0
TABLE
2
DIMSTYLE
5
A
100
AcDbSymbolTable
70
1
0
ENDTAB
0
TABLE
2
BLOCK_RECORD
5
1
100
AcDbSymbolTable
70
1
0
BLOCK_RECORD
5
1F
100
AcDbSymbolTableRecord
100
AcDbBlockTableRecord
2
*MODEL_SPACE
0
BLOCK_RECORD
5
1B
100
AcDbSymbolTableRecord
100
AcDbBlockTableRecord
2
*PAPER_SPACE
0
ENDTAB
0
ENDSEC
0
SECTION
2
BLOCKS
0
BLOCK
5
20
100
AcDbEntity
100
AcDbBlockBegin
2
*MODEL_SPACE
0
ENDBLK
5
21
100
AcDbEntity
100
AcDbBlockEnd
0
BLOCK
5
1C
100
AcDbEntity
100
AcDbBlockBegin
2
*PAPER_SPACE
0
ENDBLK
5
1D
100
AcDbEntity
100
AcDbBlockEnd
0
ENDSEC
0
SECTION
2
ENTITIES
0
LINE
5
100
100
AcDbEntity
8
0
100
AcDbLine
10
10
20
-3.4499999999999926
30
0
11
8.8000000000000007
21
-3.4499999999999926
31
0
0
LINE
5
101
100
AcDbEntity
8
0
100
AcDbLine
10
8.8000000000000007
20
-9.449999999999994
30
0
11
10
21
-9.449999999999994
31
0
0
LINE
5
102
100
AcDbEntity
8
0
100
AcDbLine
10
10
20
-9.449999999999994
30
0
11
10
21
-3.4499999999999926
31
0
0
LINE
5
103
100
AcDbEntity
8
0
100
AcDbLine
10
-10
20
-3.4499999999999926
30
0
11
-10
21
-9.449999999999994
31
0
0
LINE
5
104
100
AcDbEntity
8
0
100
AcDbLine
10
-10
20
-3.4499999999999926
30
0
11
-8.8000000000000007
21
-3.4499999999999926
31
0
0
LINE
5
105
100
AcDbEntity
8
0
100
AcDbLine
10
8.8000000000000007
20
-4.4499999999999931
30
1.3877787807814457e-16
11
-8.7999999999999989
21
-4.4499999999999931
31
1.3877787807814457e-16
0
LINE
5
106
100
AcDbEntity
8
0
100
AcDbLine
10
10
20
-3.4499999999999926
30
0
11
8.8000000000000007
21
-3.4499999999999926
31
0
0
LINE
5
107
100
AcDbEntity
8
0
100
AcDbLine
10
10
20
-3.4499999999999926
30
0
11
10
21
-9.449999999999994
31
0
0
LINE
5
108
100
AcDbEntity
8
0
100
AcDbLine
10
10
20
-9.449999999999994
30
0
11
8.8000000000000007
21
-9.449999999999994
31
0
0
LINE
5
109
100
AcDbEntity
8
0
100
AcDbLine
10
7.5
20
-9.4499999999999904
30
0
11
-7.5
21
-9.4499999999999904
31
0
0
LINE
5
110
100
AcDbEntity
8
0
100
AcDbLine
10
-7.8000000000000016
20
-8.5499999999999936
30
1.3877787807814457e-16
11
-7.8000000000000016
21
-9.4499999999999922
31
1.3877787807814457e-16
0
LINE
5
111
100
AcDbEntity
8
0
100
AcDbLine
10
7.8000000000000016
20
-8.5499999999999936
30
1.3877787807814457e-16
11
7.8000000000000016
21
-9.4499999999999922
31
1.3877787807814457e-16
0
LINE
5
112
100
AcDbEntity
8
0
100
AcDbLine
10
-10
20
-9.449999999999994
30
0
11
-8.8000000000000007
21
-9.449999999999994
31
0
0
LWPOLYLINE
5
113
100
AcDbEntity
8
0
100
AcDbPolyline
90
4
70
1
43
0.0
10
-7.1999999999999984
20
-5.9999999999999929
10
-7.200000000000002
20
-6.2999999999999936
10
-7.8000000000000025
20
-6.2999999999999945
10
-7.8000000000000025
20
-5.9999999999999947
0
LWPOLYLINE
5
114
100
AcDbEntity
8
0
100
AcDbPolyline
90
4
70
1
43
0.0
10
-4.6999999999999993
20
-5.9999999999999929
10
-4.7000000000000028
20
-6.2999999999999936
10
-5.3000000000000025
20
-6.2999999999999945
10
-5.3000000000000025
20
-5.9999999999999947
0
LWPOLYLINE
5
115
100
AcDbEntity
8
0
100
AcDbPolyline
90
4
70
1
43
0.0
10
-2.1999999999999988
20
-5.9999999999999929
10
-2.2000000000000024
20
-6.2999999999999936
10
-2.800000000000002
20
-6.2999999999999936
10
-2.800000000000002
20
-5.9999999999999929
0
LWPOLYLINE
5
116
100
AcDbEntity
8
0
100
AcDbPolyline
90
4
70
1
43
0.0
10
0.30000000000000165
20
-5.9999999999999929
10
0.29999999999999816
20
-6.2999999999999936
10
-0.30000000000000165
20
-6.2999999999999936
10
-0.30000000000000165
20
-5.9999999999999929
0
LWPOLYLINE
5
117
100
AcDbEntity
8
0
100
AcDbPolyline
90
4
70
1
43
0.0
10
2.8000000000000016
20
-5.9999999999999929
10
2.7999999999999976
20
-6.2999999999999936
10
2.199999999999998
20
-6.2999999999999936
10
2.199999999999998
20
-5.9999999999999929
0
LWPOLYLINE
5
118
100
AcDbEntity
8
0
100
AcDbPolyline
90
4
70
1
43
0.0
10
5.3000000000000016
20
-5.9999999999999929
10
5.2999999999999972
20
-6.2999999999999936
10
4.6999999999999975
20
-6.2999999999999936
10
4.6999999999999975
20
-5.9999999999999929
0
LWPOLYLINE
5
119
100
AcDbEntity
8
0
100
AcDbPolyline
90
4
70
1
43
0.0
10
7.8000000000000025
20
-5.9999999999999929
10
7.799999999999998
20
-6.2999999999999936
10
7.1999999999999984
20
-6.2999999999999936
10
7.1999999999999984
20
-5.9999999999999929
0
LINE
5
120
100
AcDbEntity
8
0
100
AcDbLine
10
-8.8000000000000007
20
-3.4499999999999926
30
0
11
-8.7999999999999989
21
-4.4499999999999931
31
1.3877787807814457e-16
0
LINE
5
121
100
AcDbEntity
8
0
100
AcDbLine
10
-8.8000000000000007
20
-9.449999999999994
30
0
11
-8.8000000000000007
21
-8.5499999999999936
31
2.7755575615628914e-16
0
LINE
5
122
100
AcDbEntity
8
0
100
AcDbLine
10
7.5
20
-9.4499999999999904
30
0
11
7.8000000000000016
21
-9.4499999999999922
31
1.3877787807814457e-16
0
LINE
5
123
100
AcDbEntity
8
0
100
AcDbLine
10
-7.5
20
-9.4499999999999904
30
0
11
-7.8000000000000016
21
-9.4499999999999922
31
1.3877787807814457e-16
0
LINE
5
124
100
AcDbEntity
8
0
100
AcDbLine
10
7.8000000000000016
20
-8.5499999999999936
30
1.3877787807814457e-16
11
8.8000000000000007
21
-8.5499999999999936
31
1.3877787807814457e-16
0
LINE
5
125
100
AcDbEntity
8
0
100
AcDbLine
10
-7.8000000000000016
20
-8.5499999999999936
30
1.3877787807814457e-16
11
-8.8000000000000007
21
-8.5499999999999936
31
2.7755575615628914e-16
0
LINE
5
126
100
AcDbEntity
8
0
100
AcDbLine
10
8.8000000000000007
20
-4.4499999999999931
30
1.3877787807814457e-16
11
8.8000000000000007
21
-3.4499999999999926
31
0
0
LINE
5
127
100
AcDbEntity
8
0
100
AcDbLine
10
8.8000000000000007
20
-8.5499999999999936
30
1.3877787807814457e-16
11
8.8000000000000007
21
-9.449999999999994
31
0
0
LWPOLYLINE
5
128
100
AcDbEntity
8
0
100
AcDbPolyline
90
4
70
1
43
0.0
10
7.1000000000000014
20
-6.5999999999999925
10
7.1000000000000014
20
-7.3999999999999915
10
7.9000000000000021
20
-7.3999999999999924
10
7.9000000000000004
20
-6.5999999999999925
0
LWPOLYLINE
5
129
100
AcDbEntity
8
0
100
AcDbPolyline
90
4
70
1
43
0.0
10
4.6000000000000014
20
-6.5999999999999925
10
4.6000000000000014
20
-7.3999999999999915
10
5.4000000000000021
20
-7.3999999999999924
10
5.4000000000000004
20
-6.5999999999999925
0
LWPOLYLINE
5
130
100
AcDbEntity
8
0
100
AcDbPolyline
90
4
70
1
43
0.0
10
2.100000000000001
20
-6.5999999999999925
10
2.100000000000001
20
-7.3999999999999924
10
2.9000000000000026
20
-7.3999999999999924
10
2.9000000000000008
20
-6.5999999999999925
0
LWPOLYLINE
5
131
100
AcDbEntity
8
0
100
AcDbPolyline
90
4
70
1
43
0.0
10
-0.39999999999999847
20
-6.5999999999999925
10
-0.39999999999999841
20
-7.3999999999999924
10
0.40000000000000285
20
-7.3999999999999924
10
0.40000000000000113
20
-6.5999999999999925
0
LWPOLYLINE
5
132
100
AcDbEntity
8
0
100
AcDbPolyline
90
4
70
1
43
0.0
10
-2.8999999999999995
20
-6.5999999999999925
10
-2.8999999999999995
20
-7.3999999999999924
10
-2.0999999999999979
20
-7.3999999999999924
10
-2.0999999999999996
20
-6.5999999999999925
0
LWPOLYLINE
5
133
100
AcDbEntity
8
0
100
AcDbPolyline
90
4
70
1
43
0.0
10
-5.3999999999999995
20
-6.5999999999999925
10
-5.3999999999999995
20
-7.3999999999999924
10
-4.5999999999999979
20
-7.3999999999999924
10
-4.5999999999999996
20
-6.5999999999999925
0
LWPOLYLINE
5
134
100
AcDbEntity
8
0
100
AcDbPolyline
90
4
70
1
43
0.0
10
-7.8999999999999986
20
-6.5999999999999925
10
-7.8999999999999986
20
-7.3999999999999924
10
-7.0999999999999979
20
-7.3999999999999924
10
-7.0999999999999996
20
-6.5999999999999925
0
LINE
5
135
100
AcDbEntity
8
0
100
AcDbLine
10
1.1102230246251565e-15
20
-4.4499999999999931
30
1.3877787807814457e-16
11
0
21
-9.4499999999999904
31
0
0
LINE
5
136
100
AcDbEntity
8
0
100
AcDbLine
10
-7.8000000000000025
20
-5.9999999999999947
30
1.3877787807814457e-16
11
-7.200000000000002
21
-6.2999999999999936
31
1.3877787807814457e-16
0
LINE
5
137
100
AcDbEntity
8
0
100
AcDbLine
10
-7.1999999999999984
20
-5.9999999999999929
30
1.3877787807814457e-16
11
-7.8000000000000025
21
-6.2999999999999945
31
1.3877787807814457e-16
0
LINE
5
138
100
AcDbEntity
8
0
100
AcDbLine
10
-5.3000000000000025
20
-5.9999999999999947
30
1.3877787807814457e-16
11
-4.7000000000000028
21
-6.2999999999999936
31
1.3877787807814457e-16
0
LINE
5
139
100
AcDbEntity
8
0
100
AcDbLine
10
-4.6999999999999993
20
-5.9999999999999929
30
1.3877787807814457e-16
11
-5.3000000000000025
21
-6.2999999999999945
31
1.3877787807814457e-16
0
LINE
5
140
100
AcDbEntity
8
0
100
AcDbLine
10
-2.2000000000000024
20
-6.2999999999999936
30
1.3877787807814457e-16
11
-2.800000000000002
21
-5.9999999999999929
31
1.3877787807814457e-16
0
LINE
5
141
100
AcDbEntity
8
0
100
AcDbLine
10
-2.800000000000002
20
-6.2999999999999936
30
1.3877787807814457e-16
11
-2.1999999999999988
21
-5.9999999999999929
31
1.3877787807814457e-16
0
LINE
5
142
100
AcDbEntity
8
0
100
AcDbLine
10
-0.30000000000000165
20
-5.9999999999999929
30
1.3877787807814457e-16
11
0.29999999999999816
21
-6.2999999999999936
31
1.3877787807814457e-16
0
LINE
5
143
100
AcDbEntity
8
0
100
AcDbLine
10
0.30000000000000165
20
-5.9999999999999929
30
1.3877787807814457e-16
11
-0.30000000000000165
21
-6.2999999999999936
31
1.3877787807814457e-16
0
LINE
5
144
100
AcDbEntity
8
0
100
AcDbLine
10
2.199999999999998
20
-5.9999999999999929
30
1.3877787807814457e-16
11
2.7999999999999976
21
-6.2999999999999936
31
1.3877787807814457e-16
0
LINE
5
145
100
AcDbEntity
8
0
100
AcDbLine
10
2.8000000000000016
20
-5.9999999999999929
30
1.3877787807814457e-16
11
2.199999999999998
21
-6.2999999999999936
31
1.3877787807814457e-16
0
LINE
5
146
100
AcDbEntity
8
0
100
AcDbLine
10
4.6999999999999975
20
-5.9999999999999929
30
1.3877787807814457e-16
11
5.2999999999999972
21
-6.2999999999999936
31
1.3877787807814457e-16
0
LINE
5
147
100
AcDbEntity
8
0
100
AcDbLine
10
5.3000000000000016
20
-5.9999999999999929
30
1.3877787807814457e-16
11
4.6999999999999975
21
-6.2999999999999936
31
1.3877787807814457e-16
0
LINE
5
148
100
AcDbEntity
8
0
100
AcDbLine
10
7.1999999999999984
20
-5.9999999999999929
30
1.3877787807814457e-16
11
7.799999999999998
21
-6.2999999999999936
31
1.3877787807814457e-16
0
LINE
5
149
100
AcDbEntity
8
0
100
AcDbLine
10
7.8000000000000025
20
-5.9999999999999929
30
1.3877787807814457e-16
11
7.1999999999999984
21
-6.2999999999999936
31
1.3877787807814457e-16
0
LWPOLYLINE
5
150
100
AcDbEntity
8
0
100
AcDbPolyline
90
8
70
1
43
0.0
10
10.25
20
-3.1999999999999931
10
10.25
20
-9.699999999999994
10
-10.25
20
-9.6999999999999922
10
-10.25
20
-3.1999999999999922
10
-8.5500000000000007
20
-3.1999999999999922
10
-8.5499999999999989
20
-4.1999999999999922
10
8.5500000000000007
20
-4.1999999999999922
10
8.5500000000000007
20
-3.1999999999999922
0
LWPOLYLINE
5
151
100
AcDbEntity
8
0
100
AcDbPolyline
90
4
70
1
43
0.0
10
14.999999999999998
20
0
10
-15.000000000000002
20
0
10
-15.000000000000002
20
-15
10
14.999999999999998
20
-15
0
ENDSEC
0
SECTION
2
OBJECTS
0
DICTIONARY
5
C
100
AcDbDictionary
3
ACAD_GROUP
350
D
3
ACAD_MLINESTYLE
350
17
0
DICTIONARY
5
D
100
AcDbDictionary
0
DICTIONARY
5
1A
330
C
100
AcDbDictionary
0
DICTIONARY
5
17
100
AcDbDictionary
0
ENDSEC
0
EOF
