  0
SECTION
  2
HEADER
  9
$ACADVER
  1
AC1009
  9
$INSBASE
 10
0.0
 20
0.0
 30
0.0
  9
$EXTMIN
 10
0.0
 20
0.0
 30
0.0
  9
$EXTMAX
 10
0.0
 20
0.0
 30
0.0
  0
ENDSEC
  0
SECTION
  2
TABLES
  0
TABLE
  2
VPORT
 70
0
  0
ENDTAB
  0
TABLE
  2
LTYPE
 70
1
  0
LTYPE
  2
CONTINUOUS
 70
0
  3
Solid line
 72
65
 73
0
 40
0.0
  0
ENDTAB
  0
TABLE
  2
LAYER
 70
1
  0
LAYER
  2
0
 70
64
 62
7
  6
continuous
  0
ENDTAB
  0
TABLE
  2
STYLE
 70
1
  0
STYLE
  2
STANDARD
 70
0
 40
0
 41
1.0
 50
0.0
 71
0
 42
1
 3
ARIAL.TTF
 4

  0
ENDTAB
  0
TABLE
  2
VIEW
 70
0
  0
ENDTAB
  0
ENDSEC
  0
SECTION
  2
BLOCKS
  0
BLOCK
  8
0
  2
CUT007001_SOLID
 70
0
 10
0.0
 20
0.0
 30
0.0
  3
CUT007001_SOLID
  0
LINE
  8
0
 62
0
 10
0.0
 20
53.5
 30
0.0
 11
-10.249999999999998
 21
53.5
 31
0.0
  0
LINE
  8
0
 62
0
 10
0.0
 20
53.5
 30
0.0
 11
0.0
 21
47.0
 31
0.0
  0
ARC
  8
0
 62
0
 10
-10.249999999999998
 20
38.25
 30
0.0
 40
15.25
 50
90.0
 51
-180.0
  0
LINE
  8
0
 62
0
 10
0.0
 20
47.0
 30
0.0
 11
-13.000000000000002
 21
47.0
 31
0.0
  0
ARC
  8
0
 62
0
 10
-13.0
 20
40.0
 30
0.0
 40
7.000000000000003
 50
90.00000000000001
 51
-180.0
  0
LINE
  8
0
 62
0
 10
-20.000000000000004
 20
31.0
 30
0.0
 11
-20.000000000000004
 21
40.0
 31
0.0
  0
ARC
  8
0
 62
0
 10
-17.0
 20
31.0
 30
0.0
 40
3.0
 50
-180.0
 51
-90.0
  0
LINE
  8
0
 62
0
 10
0.0
 20
28.0
 30
0.0
 11
-17.0
 21
28.0
 31
0.0
  0
LINE
  8
0
 62
0
 10
0.0
 20
28.0
 30
0.0
 11
0.0
 21
18.0
 31
0.0
  0
LINE
  8
0
 62
0
 10
0.0
 20
18.0
 30
0.0
 11
-25.5
 21
18.0
 31
0.0
  0
LINE
  8
0
 62
0
 10
-25.5
 20
38.25
 30
0.0
 11
-25.5
 21
18.0
 31
0.0
  0
ENDBLK
  0
ENDSEC
  0
SECTION
  2
ENTITIES
  0
INSERT
  2
CUT007001_SOLID
  8
0
 62
0
 10
0.0
 20
0.0
 30
0.0
  0
ENDSEC
  0
EOF
