ISO-10303-21;
HEADER;
FILE_DESCRIPTION(('FreeCAD Model'),'2;1');
FILE_NAME('Open CASCADE Shape Model','2021-11-27T09:28:50',('BT'),(''),
  'Open CASCADE STEP processor 7.4','FreeCAD','Unknown');
FILE_SCHEMA(('AUTOMOTIVE_DESIGN { 1 0 10303 214 1 1 1 1 }'));
ENDSEC;
DATA;
#1 = APPLICATION_PROTOCOL_DEFINITION('international standard',
  'automotive_design',2000,#2);
#2 = APPLICATION_CONTEXT(
  'core data for automotive mechanical design processes');
#3 = SHAPE_DEFINITION_REPRESENTATION(#4,#10);
#4 = PRODUCT_DEFINITION_SHAPE('','',#5);
#5 = PRODUCT_DEFINITION('design','',#6,#9);
#6 = PRODUCT_DEFINITION_FORMATION('','',#7);
#7 = PRODUCT('Body','Body','',(#8));
#8 = PRODUCT_CONTEXT('',#2,'mechanical');
#9 = PRODUCT_DEFINITION_CONTEXT('part definition',#2,'design');
#10 = ADVANCED_BREP_SHAPE_REPRESENTATION('',(#11,#15),#265);
#11 = AXIS2_PLACEMENT_3D('',#12,#13,#14);
#12 = CARTESIAN_POINT('',(0.,0.,0.));
#13 = DIRECTION('',(0.,0.,1.));
#14 = DIRECTION('',(1.,0.,-0.));
#15 = MANIFOLD_SOLID_BREP('',#16);
#16 = CLOSED_SHELL('',(#17,#55,#81,#107,#133,#158,#183,#208,#228,#248));
#17 = ADVANCED_FACE('',(#18),#46,.F.);
#18 = FACE_BOUND('',#19,.F.);
#19 = EDGE_LOOP('',(#20,#29,#38,#45));
#20 = ORIENTED_EDGE('',*,*,#21,.T.);
#21 = EDGE_CURVE('',#22,#22,#24,.T.);
#22 = VERTEX_POINT('',#23);
#23 = CARTESIAN_POINT('',(1.146684782399,6.272840904523E-15,
    4.035766280024));
#24 = CIRCLE('',#25,1.146684782399);
#25 = AXIS2_PLACEMENT_3D('',#26,#27,#28);
#26 = CARTESIAN_POINT('',(0.,6.272840904523E-15,4.035766280024));
#27 = DIRECTION('',(0.,-1.554312234475E-15,-1.));
#28 = DIRECTION('',(1.,0.,0.));
#29 = ORIENTED_EDGE('',*,*,#30,.T.);
#30 = EDGE_CURVE('',#22,#31,#33,.T.);
#31 = VERTEX_POINT('',#32);
#32 = CARTESIAN_POINT('',(1.396069176598,7.427668993149E-15,
    4.778749615682));
#33 = CIRCLE('',#34,0.8876464457);
#34 = AXIS2_PLACEMENT_3D('',#35,#36,#37);
#35 = CARTESIAN_POINT('',(0.51630769152,7.24418151591E-15,4.660699025094
    ));
#36 = DIRECTION('',(0.,-1.,1.554312234475E-15));
#37 = DIRECTION('',(1.,0.,0.));
#38 = ORIENTED_EDGE('',*,*,#39,.F.);
#39 = EDGE_CURVE('',#31,#31,#40,.T.);
#40 = CIRCLE('',#41,1.396069176598);
#41 = AXIS2_PLACEMENT_3D('',#42,#43,#44);
#42 = CARTESIAN_POINT('',(0.,7.427668993149E-15,4.778749615682));
#43 = DIRECTION('',(0.,-1.554312234475E-15,-1.));
#44 = DIRECTION('',(1.,0.,0.));
#45 = ORIENTED_EDGE('',*,*,#30,.F.);
#46 = SURFACE_OF_REVOLUTION('',#47,#52);
#47 = CIRCLE('',#48,0.8876464457);
#48 = AXIS2_PLACEMENT_3D('',#49,#50,#51);
#49 = CARTESIAN_POINT('',(0.51630769152,7.24418151591E-15,4.660699025094
    ));
#50 = DIRECTION('',(0.,-1.,1.554312234475E-15));
#51 = DIRECTION('',(1.,0.,0.));
#52 = AXIS1_PLACEMENT('',#53,#54);
#53 = CARTESIAN_POINT('',(0.,0.,0.));
#54 = DIRECTION('',(0.,-1.554312234475E-15,-1.));
#55 = ADVANCED_FACE('',(#56),#76,.F.);
#56 = FACE_BOUND('',#57,.T.);
#57 = EDGE_LOOP('',(#58,#59,#68,#75));
#58 = ORIENTED_EDGE('',*,*,#21,.T.);
#59 = ORIENTED_EDGE('',*,*,#60,.T.);
#60 = EDGE_CURVE('',#22,#61,#63,.T.);
#61 = VERTEX_POINT('',#62);
#62 = CARTESIAN_POINT('',(1.178720524412,4.310095013168E-15,
    2.772991756462));
#63 = CIRCLE('',#64,0.875);
#64 = AXIS2_PLACEMENT_3D('',#65,#66,#67);
#65 = CARTESIAN_POINT('',(1.768080786619,5.315339143456E-15,
    3.419737055117));
#66 = DIRECTION('',(0.,-1.,1.554312234475E-15));
#67 = DIRECTION('',(1.,0.,0.));
#68 = ORIENTED_EDGE('',*,*,#69,.F.);
#69 = EDGE_CURVE('',#61,#61,#70,.T.);
#70 = CIRCLE('',#71,1.178720524412);
#71 = AXIS2_PLACEMENT_3D('',#72,#73,#74);
#72 = CARTESIAN_POINT('',(0.,4.310095013168E-15,2.772991756462));
#73 = DIRECTION('',(0.,-1.554312234475E-15,-1.));
#74 = DIRECTION('',(1.,0.,0.));
#75 = ORIENTED_EDGE('',*,*,#60,.F.);
#76 = TOROIDAL_SURFACE('',#77,1.768080786619,0.875);
#77 = AXIS2_PLACEMENT_3D('',#78,#79,#80);
#78 = CARTESIAN_POINT('',(0.,5.315339143456E-15,3.419737055117));
#79 = DIRECTION('',(0.,1.554312234475E-15,1.));
#80 = DIRECTION('',(1.,0.,0.));
#81 = ADVANCED_FACE('',(#82),#102,.T.);
#82 = FACE_BOUND('',#83,.F.);
#83 = EDGE_LOOP('',(#84,#93,#94,#95));
#84 = ORIENTED_EDGE('',*,*,#85,.F.);
#85 = EDGE_CURVE('',#31,#86,#88,.T.);
#86 = VERTEX_POINT('',#87);
#87 = CARTESIAN_POINT('',(0.6,9.117317429496E-15,5.865821054014));
#88 = CIRCLE('',#89,1.408581602603);
#89 = AXIS2_PLACEMENT_3D('',#90,#91,#92);
#90 = CARTESIAN_POINT('',(-4.350454466443E-17,7.136497788669E-15,
    4.591418397397));
#91 = DIRECTION('',(0.,-1.,1.554312234475E-15));
#92 = DIRECTION('',(1.,0.,0.));
#93 = ORIENTED_EDGE('',*,*,#39,.T.);
#94 = ORIENTED_EDGE('',*,*,#85,.T.);
#95 = ORIENTED_EDGE('',*,*,#96,.F.);
#96 = EDGE_CURVE('',#86,#86,#97,.T.);
#97 = CIRCLE('',#98,0.6);
#98 = AXIS2_PLACEMENT_3D('',#99,#100,#101);
#99 = CARTESIAN_POINT('',(-4.350454466443E-17,9.117317429496E-15,
    5.865821054014));
#100 = DIRECTION('',(0.,-1.554312234475E-15,-1.));
#101 = DIRECTION('',(0.,1.,-1.554312234475E-15));
#102 = SPHERICAL_SURFACE('',#103,1.408581602603);
#103 = AXIS2_PLACEMENT_3D('',#104,#105,#106);
#104 = CARTESIAN_POINT('',(-4.350454466443E-17,7.136497788669E-15,
    4.591418397397));
#105 = DIRECTION('',(0.,1.554312234475E-15,1.));
#106 = DIRECTION('',(1.,0.,0.));
#107 = ADVANCED_FACE('',(#108),#128,.T.);
#108 = FACE_BOUND('',#109,.F.);
#109 = EDGE_LOOP('',(#110,#119,#126,#127));
#110 = ORIENTED_EDGE('',*,*,#111,.T.);
#111 = EDGE_CURVE('',#112,#112,#114,.T.);
#112 = VERTEX_POINT('',#113);
#113 = CARTESIAN_POINT('',(1.75,2.29960675259E-15,1.479501159152));
#114 = CIRCLE('',#115,1.75);
#115 = AXIS2_PLACEMENT_3D('',#116,#117,#118);
#116 = CARTESIAN_POINT('',(0.,2.29960675259E-15,1.479501159152));
#117 = DIRECTION('',(0.,-1.554312234475E-15,-1.));
#118 = DIRECTION('',(1.,0.,0.));
#119 = ORIENTED_EDGE('',*,*,#120,.T.);
#120 = EDGE_CURVE('',#112,#61,#121,.T.);
#121 = CIRCLE('',#122,1.75);
#122 = AXIS2_PLACEMENT_3D('',#123,#124,#125);
#123 = CARTESIAN_POINT('',(-3.159419998672E-17,2.29960675259E-15,
    1.479501159152));
#124 = DIRECTION('',(0.,-1.,1.554312234475E-15));
#125 = DIRECTION('',(1.,0.,0.));
#126 = ORIENTED_EDGE('',*,*,#69,.F.);
#127 = ORIENTED_EDGE('',*,*,#120,.F.);
#128 = SPHERICAL_SURFACE('',#129,1.75);
#129 = AXIS2_PLACEMENT_3D('',#130,#131,#132);
#130 = CARTESIAN_POINT('',(-3.159419998672E-17,2.29960675259E-15,
    1.479501159152));
#131 = DIRECTION('',(0.,1.554312234475E-15,1.));
#132 = DIRECTION('',(1.,0.,0.));
#133 = ADVANCED_FACE('',(#134),#153,.F.);
#134 = FACE_BOUND('',#135,.F.);
#135 = EDGE_LOOP('',(#136,#144,#151,#152));
#136 = ORIENTED_EDGE('',*,*,#137,.F.);
#137 = EDGE_CURVE('',#138,#86,#140,.T.);
#138 = VERTEX_POINT('',#139);
#139 = CARTESIAN_POINT('',(0.6,0.,0.));
#140 = LINE('',#141,#142);
#141 = CARTESIAN_POINT('',(0.6,0.,0.));
#142 = VECTOR('',#143,1.);
#143 = DIRECTION('',(0.,1.554312234475E-15,1.));
#144 = ORIENTED_EDGE('',*,*,#145,.F.);
#145 = EDGE_CURVE('',#138,#138,#146,.T.);
#146 = CIRCLE('',#147,0.6);
#147 = AXIS2_PLACEMENT_3D('',#148,#149,#150);
#148 = CARTESIAN_POINT('',(0.,0.,0.));
#149 = DIRECTION('',(0.,-1.554312234475E-15,-1.));
#150 = DIRECTION('',(1.,0.,0.));
#151 = ORIENTED_EDGE('',*,*,#137,.T.);
#152 = ORIENTED_EDGE('',*,*,#96,.T.);
#153 = CYLINDRICAL_SURFACE('',#154,0.6);
#154 = AXIS2_PLACEMENT_3D('',#155,#156,#157);
#155 = CARTESIAN_POINT('',(0.,0.,0.));
#156 = DIRECTION('',(0.,-1.554312234475E-15,-1.));
#157 = DIRECTION('',(1.,0.,0.));
#158 = ADVANCED_FACE('',(#159),#178,.T.);
#159 = FACE_BOUND('',#160,.F.);
#160 = EDGE_LOOP('',(#161,#170,#176,#177));
#161 = ORIENTED_EDGE('',*,*,#162,.T.);
#162 = EDGE_CURVE('',#163,#163,#165,.T.);
#163 = VERTEX_POINT('',#164);
#164 = CARTESIAN_POINT('',(1.75,0.,0.));
#165 = CIRCLE('',#166,1.75);
#166 = AXIS2_PLACEMENT_3D('',#167,#168,#169);
#167 = CARTESIAN_POINT('',(0.,0.,0.));
#168 = DIRECTION('',(0.,-1.554312234475E-15,-1.));
#169 = DIRECTION('',(1.,0.,0.));
#170 = ORIENTED_EDGE('',*,*,#171,.T.);
#171 = EDGE_CURVE('',#163,#112,#172,.T.);
#172 = LINE('',#173,#174);
#173 = CARTESIAN_POINT('',(1.75,0.,0.));
#174 = VECTOR('',#175,1.);
#175 = DIRECTION('',(0.,1.554312234475E-15,1.));
#176 = ORIENTED_EDGE('',*,*,#111,.F.);
#177 = ORIENTED_EDGE('',*,*,#171,.F.);
#178 = CYLINDRICAL_SURFACE('',#179,1.75);
#179 = AXIS2_PLACEMENT_3D('',#180,#181,#182);
#180 = CARTESIAN_POINT('',(0.,0.,0.));
#181 = DIRECTION('',(0.,1.554312234475E-15,1.));
#182 = DIRECTION('',(1.,0.,0.));
#183 = ADVANCED_FACE('',(#184),#203,.F.);
#184 = FACE_BOUND('',#185,.T.);
#185 = EDGE_LOOP('',(#186,#194,#201,#202));
#186 = ORIENTED_EDGE('',*,*,#187,.T.);
#187 = EDGE_CURVE('',#138,#188,#190,.T.);
#188 = VERTEX_POINT('',#189);
#189 = CARTESIAN_POINT('',(0.6,-2.48689957516E-15,-1.6));
#190 = LINE('',#191,#192);
#191 = CARTESIAN_POINT('',(0.6,0.,0.));
#192 = VECTOR('',#193,1.);
#193 = DIRECTION('',(0.,-1.554312234475E-15,-1.));
#194 = ORIENTED_EDGE('',*,*,#195,.T.);
#195 = EDGE_CURVE('',#188,#188,#196,.T.);
#196 = CIRCLE('',#197,0.6);
#197 = AXIS2_PLACEMENT_3D('',#198,#199,#200);
#198 = CARTESIAN_POINT('',(0.,-2.442490654175E-15,-1.6));
#199 = DIRECTION('',(0.,-1.554312234475E-15,-1.));
#200 = DIRECTION('',(1.,0.,0.));
#201 = ORIENTED_EDGE('',*,*,#187,.F.);
#202 = ORIENTED_EDGE('',*,*,#145,.F.);
#203 = CYLINDRICAL_SURFACE('',#204,0.6);
#204 = AXIS2_PLACEMENT_3D('',#205,#206,#207);
#205 = CARTESIAN_POINT('',(0.,0.,0.));
#206 = DIRECTION('',(0.,1.554312234475E-15,1.));
#207 = DIRECTION('',(1.,0.,0.));
#208 = ADVANCED_FACE('',(#209,#212),#223,.T.);
#209 = FACE_BOUND('',#210,.F.);
#210 = EDGE_LOOP('',(#211));
#211 = ORIENTED_EDGE('',*,*,#162,.F.);
#212 = FACE_BOUND('',#213,.F.);
#213 = EDGE_LOOP('',(#214));
#214 = ORIENTED_EDGE('',*,*,#215,.T.);
#215 = EDGE_CURVE('',#216,#216,#218,.T.);
#216 = VERTEX_POINT('',#217);
#217 = CARTESIAN_POINT('',(1.,0.,0.));
#218 = CIRCLE('',#219,1.);
#219 = AXIS2_PLACEMENT_3D('',#220,#221,#222);
#220 = CARTESIAN_POINT('',(0.,0.,0.));
#221 = DIRECTION('',(0.,-1.554312234475E-15,-1.));
#222 = DIRECTION('',(1.,0.,0.));
#223 = PLANE('',#224);
#224 = AXIS2_PLACEMENT_3D('',#225,#226,#227);
#225 = CARTESIAN_POINT('',(0.,0.,0.));
#226 = DIRECTION('',(0.,-1.554312234475E-15,-1.));
#227 = DIRECTION('',(1.,0.,0.));
#228 = ADVANCED_FACE('',(#229,#240),#243,.T.);
#229 = FACE_BOUND('',#230,.T.);
#230 = EDGE_LOOP('',(#231));
#231 = ORIENTED_EDGE('',*,*,#232,.T.);
#232 = EDGE_CURVE('',#233,#233,#235,.T.);
#233 = VERTEX_POINT('',#234);
#234 = CARTESIAN_POINT('',(1.,-2.48689957516E-15,-1.6));
#235 = CIRCLE('',#236,1.);
#236 = AXIS2_PLACEMENT_3D('',#237,#238,#239);
#237 = CARTESIAN_POINT('',(0.,-2.442490654175E-15,-1.6));
#238 = DIRECTION('',(0.,-1.554312234475E-15,-1.));
#239 = DIRECTION('',(1.,0.,0.));
#240 = FACE_BOUND('',#241,.T.);
#241 = EDGE_LOOP('',(#242));
#242 = ORIENTED_EDGE('',*,*,#195,.F.);
#243 = PLANE('',#244);
#244 = AXIS2_PLACEMENT_3D('',#245,#246,#247);
#245 = CARTESIAN_POINT('',(-6.409875621279E-17,-2.6645352591E-15,-1.6));
#246 = DIRECTION('',(4.930380657631E-32,-1.554312234475E-15,-1.));
#247 = DIRECTION('',(0.,-1.,1.554312234475E-15));
#248 = ADVANCED_FACE('',(#249),#260,.T.);
#249 = FACE_BOUND('',#250,.F.);
#250 = EDGE_LOOP('',(#251,#257,#258,#259));
#251 = ORIENTED_EDGE('',*,*,#252,.T.);
#252 = EDGE_CURVE('',#216,#233,#253,.T.);
#253 = LINE('',#254,#255);
#254 = CARTESIAN_POINT('',(1.,0.,0.));
#255 = VECTOR('',#256,1.);
#256 = DIRECTION('',(0.,-1.554312234475E-15,-1.));
#257 = ORIENTED_EDGE('',*,*,#232,.T.);
#258 = ORIENTED_EDGE('',*,*,#252,.F.);
#259 = ORIENTED_EDGE('',*,*,#215,.F.);
#260 = CYLINDRICAL_SURFACE('',#261,1.);
#261 = AXIS2_PLACEMENT_3D('',#262,#263,#264);
#262 = CARTESIAN_POINT('',(0.,0.,0.));
#263 = DIRECTION('',(0.,1.554312234475E-15,1.));
#264 = DIRECTION('',(1.,0.,0.));
#265 = ( GEOMETRIC_REPRESENTATION_CONTEXT(3) 
GLOBAL_UNCERTAINTY_ASSIGNED_CONTEXT((#269)) GLOBAL_UNIT_ASSIGNED_CONTEXT
((#266,#267,#268)) REPRESENTATION_CONTEXT('Context #1',
  '3D Context with UNIT and UNCERTAINTY') );
#266 = ( LENGTH_UNIT() NAMED_UNIT(*) SI_UNIT(.MILLI.,.METRE.) );
#267 = ( NAMED_UNIT(*) PLANE_ANGLE_UNIT() SI_UNIT($,.RADIAN.) );
#268 = ( NAMED_UNIT(*) SI_UNIT($,.STERADIAN.) SOLID_ANGLE_UNIT() );
#269 = UNCERTAINTY_MEASURE_WITH_UNIT(LENGTH_MEASURE(1.E-07),#266,
  'distance_accuracy_value','confusion accuracy');
#270 = PRODUCT_RELATED_PRODUCT_CATEGORY('part',$,(#7));
#271 = MECHANICAL_DESIGN_GEOMETRIC_PRESENTATION_REPRESENTATION('',(#272)
  ,#265);
#272 = STYLED_ITEM('color',(#273),#15);
#273 = PRESENTATION_STYLE_ASSIGNMENT((#274,#280));
#274 = SURFACE_STYLE_USAGE(.BOTH.,#275);
#275 = SURFACE_SIDE_STYLE('',(#276));
#276 = SURFACE_STYLE_FILL_AREA(#277);
#277 = FILL_AREA_STYLE('',(#278));
#278 = FILL_AREA_STYLE_COLOUR('',#279);
#279 = COLOUR_RGB('',1.,0.866666674614,0.20000000298);
#280 = CURVE_STYLE('',#281,POSITIVE_LENGTH_MEASURE(0.1),#282);
#281 = DRAUGHTING_PRE_DEFINED_CURVE_FONT('continuous');
#282 = COLOUR_RGB('',0.956862747669,0.956862747669,0.956862747669);
ENDSEC;
END-ISO-10303-21;
