  0
SECTION
  2
HEADER
  9
$ANGBASE
  50
0.0
  9
$ANGDIR
  70
1
  9
$MEASUREMENT
  70
1
  0
ENDSEC
  0
SECTION
  2
TABLES
  0
TABLE
  2
LTYPE
  70
4
  0
LTYPE
  5
40F
  2
CONTINUOUS
  70
0
  3
Solid line
  72
65
  73
0
  40
0.0
  0
LTYPE
  5
410
  2
DASHDOT
 70
0
  3
Dash Dot ____ _ ____ _
 72
65
 73
4
 40
2.0
 49
1.25
 49
-0.25
 49
0.25
 49
-0.25
  0
LTYPE
  5
411
  2
DASHED
 70
0
  3
Dashed __ __ __ __ __
 72
65
 73
2
 40
0.75
 49
0.5
 49
-0.25
  0
LTYPE
  5
43B
  2
DOTTED
 70
0
  3
Dotted .  .  .  .
 72
65
 73
2
 40
0.2
 49
0.0
 49
-0.2
  0
ENDTAB
  0
TABLE
  2
STYLE
  70
4
  0
STYLE
  2
KICAD
  70
0
  40
0
  41
1
  42
1
  50
0
  71
0
  3
isocp.shx
  0
STYLE
  2
KICADB
  70
0
  40
0
  41
1
  42
1
  50
0
  71
0
  3
isocp.shx
  0
STYLE
  2
KICADI
  70
0
  40
0
  41
1
  42
1
  50
15
  71
0
  3
isocp.shx
  0
STYLE
  2
KICADBI
  70
0
  40
0
  41
1
  42
1
  50
15
  71
0
  3
isocp.shx
  0
ENDTAB
  0
TABLE
  2
LAYER
  70
1
  0
LAYER
  2
BLACK
  70
0
  62
7
  6
CONTINUOUS
  0
ENDTAB
  0
ENDSEC
  0
SECTION
  2
ENTITIES
0
LINE
8
BLACK
6
CONTINUOUS
10
257.456
20
-67.475
11
257.433
21
-67.7102
0
LINE
8
BLACK
6
CONTINUOUS
10
257.433
20
-67.7102
11
257.364
21
-67.9364
0
LINE
8
BLACK
6
CONTINUOUS
10
257.364
20
-67.9364
11
257.253
21
-68.1449
0
LINE
8
BLACK
6
CONTINUOUS
10
257.253
20
-68.1449
11
257.103
21
-68.3276
0
LINE
8
BLACK
6
CONTINUOUS
10
257.103
20
-68.3276
11
256.92
21
-68.4776
0
LINE
8
BLACK
6
CONTINUOUS
10
256.92
20
-68.4776
11
256.711
21
-68.589
0
LINE
8
BLACK
6
CONTINUOUS
10
256.711
20
-68.589
11
256.485
21
-68.6576
0
LINE
8
BLACK
6
CONTINUOUS
10
256.485
20
-68.6576
11
256.309
21
-68.675
0
LINE
8
BLACK
6
CONTINUOUS
10
256.309
20
-68.675
11
256.25
21
-68.6808
0
LINE
8
BLACK
6
CONTINUOUS
10
256.25
20
-68.6808
11
256.191
21
-68.675
0
LINE
8
BLACK
6
CONTINUOUS
10
256.191
20
-68.675
11
253.525
21
-68.675
0
LINE
8
BLACK
6
CONTINUOUS
10
253.525
20
-68.675
11
253.525
21
-75.025
0
LINE
8
BLACK
6
CONTINUOUS
10
253.525
20
-75.025
11
286.941
21
-75.025
0
LINE
8
BLACK
6
CONTINUOUS
10
286.941
20
-75.025
11
287.075
21
-75.0118
0
LINE
8
BLACK
6
CONTINUOUS
10
287.075
20
-75.0118
11
287.31
21
-75.035
0
LINE
8
BLACK
6
CONTINUOUS
10
287.31
20
-75.035
11
287.536
21
-75.1036
0
LINE
8
BLACK
6
CONTINUOUS
10
287.536
20
-75.1036
11
287.745
21
-75.2151
0
LINE
8
BLACK
6
CONTINUOUS
10
287.745
20
-75.2151
11
287.928
21
-75.365
0
LINE
8
BLACK
6
CONTINUOUS
10
287.928
20
-75.365
11
288.078
21
-75.5477
0
LINE
8
BLACK
6
CONTINUOUS
10
288.078
20
-75.5477
11
288.189
21
-75.7562
0
LINE
8
BLACK
6
CONTINUOUS
10
288.189
20
-75.7562
11
288.258
21
-75.9824
0
LINE
8
BLACK
6
CONTINUOUS
10
288.258
20
-75.9824
11
288.275
21
-76.1587
0
LINE
8
BLACK
6
CONTINUOUS
10
288.275
20
-76.1587
11
288.275
21
-76.166
0
LINE
8
BLACK
6
CONTINUOUS
10
288.275
20
-76.166
11
288.281
21
-76.225
0
LINE
8
BLACK
6
CONTINUOUS
10
288.281
20
-76.225
11
288.275
21
-76.2839
0
LINE
8
BLACK
6
CONTINUOUS
10
288.275
20
-76.2839
11
288.275
21
-104.891
0
LINE
8
BLACK
6
CONTINUOUS
10
288.275
20
-104.891
11
288.281
21
-104.95
0
LINE
8
BLACK
6
CONTINUOUS
10
288.281
20
-104.95
11
288.258
21
-105.185
0
LINE
8
BLACK
6
CONTINUOUS
10
288.258
20
-105.185
11
288.189
21
-105.411
0
LINE
8
BLACK
6
CONTINUOUS
10
288.189
20
-105.411
11
288.078
21
-105.619
0
LINE
8
BLACK
6
CONTINUOUS
10
288.078
20
-105.619
11
287.928
21
-105.802
0
LINE
8
BLACK
6
CONTINUOUS
10
287.928
20
-105.802
11
287.745
21
-105.952
0
LINE
8
BLACK
6
CONTINUOUS
10
287.745
20
-105.952
11
287.536
21
-106.064
0
LINE
8
BLACK
6
CONTINUOUS
10
287.536
20
-106.064
11
287.31
21
-106.132
0
LINE
8
BLACK
6
CONTINUOUS
10
287.31
20
-106.132
11
287.134
21
-106.15
0
LINE
8
BLACK
6
CONTINUOUS
10
287.134
20
-106.15
11
287.075
21
-106.155
0
LINE
8
BLACK
6
CONTINUOUS
10
287.075
20
-106.155
11
287.016
21
-106.15
0
LINE
8
BLACK
6
CONTINUOUS
10
287.016
20
-106.15
11
271.75
21
-106.15
0
LINE
8
BLACK
6
CONTINUOUS
10
271.75
20
-106.15
11
271.75
21
-120.741
0
LINE
8
BLACK
6
CONTINUOUS
10
271.75
20
-120.741
11
271.756
21
-120.8
0
LINE
8
BLACK
6
CONTINUOUS
10
271.756
20
-120.8
11
271.75
21
-120.859
0
LINE
8
BLACK
6
CONTINUOUS
10
271.75
20
-120.859
11
271.75
21
-202.279
0
LINE
8
BLACK
6
CONTINUOUS
10
271.75
20
-202.279
11
286.941
21
-202.279
0
LINE
8
BLACK
6
CONTINUOUS
10
286.941
20
-202.279
11
287.075
21
-202.266
0
LINE
8
BLACK
6
CONTINUOUS
10
287.075
20
-202.266
11
287.31
21
-202.289
0
LINE
8
BLACK
6
CONTINUOUS
10
287.31
20
-202.289
11
287.536
21
-202.358
0
LINE
8
BLACK
6
CONTINUOUS
10
287.536
20
-202.358
11
287.745
21
-202.469
0
LINE
8
BLACK
6
CONTINUOUS
10
287.745
20
-202.469
11
287.928
21
-202.619
0
LINE
8
BLACK
6
CONTINUOUS
10
287.928
20
-202.619
11
288.078
21
-202.802
0
LINE
8
BLACK
6
CONTINUOUS
10
288.078
20
-202.802
11
288.189
21
-203.01
0
LINE
8
BLACK
6
CONTINUOUS
10
288.189
20
-203.01
11
288.258
21
-203.236
0
LINE
8
BLACK
6
CONTINUOUS
10
288.258
20
-203.236
11
288.275
21
-203.413
0
LINE
8
BLACK
6
CONTINUOUS
10
288.275
20
-203.413
11
288.275
21
-203.42
0
LINE
8
BLACK
6
CONTINUOUS
10
288.275
20
-203.42
11
288.281
21
-203.479
0
LINE
8
BLACK
6
CONTINUOUS
10
288.281
20
-203.479
11
288.275
21
-203.538
0
LINE
8
BLACK
6
CONTINUOUS
10
288.275
20
-203.538
11
288.275
21
-232.145
0
LINE
8
BLACK
6
CONTINUOUS
10
288.275
20
-232.145
11
288.281
21
-232.204
0
LINE
8
BLACK
6
CONTINUOUS
10
288.281
20
-232.204
11
288.275
21
-232.262
0
LINE
8
BLACK
6
CONTINUOUS
10
288.275
20
-232.262
11
288.275
21
-232.262
0
LINE
8
BLACK
6
CONTINUOUS
10
288.275
20
-232.262
11
288.258
21
-232.439
0
LINE
8
BLACK
6
CONTINUOUS
10
288.258
20
-232.439
11
288.189
21
-232.665
0
LINE
8
BLACK
6
CONTINUOUS
10
288.189
20
-232.665
11
288.078
21
-232.873
0
LINE
8
BLACK
6
CONTINUOUS
10
288.078
20
-232.873
11
287.928
21
-233.056
0
LINE
8
BLACK
6
CONTINUOUS
10
287.928
20
-233.056
11
287.745
21
-233.206
0
LINE
8
BLACK
6
CONTINUOUS
10
287.745
20
-233.206
11
287.536
21
-233.318
0
LINE
8
BLACK
6
CONTINUOUS
10
287.536
20
-233.318
11
287.31
21
-233.386
0
LINE
8
BLACK
6
CONTINUOUS
10
287.31
20
-233.386
11
287.075
21
-233.409
0
LINE
8
BLACK
6
CONTINUOUS
10
287.075
20
-233.409
11
287.016
21
-233.404
0
LINE
8
BLACK
6
CONTINUOUS
10
287.016
20
-233.404
11
253.525
21
-233.404
0
LINE
8
BLACK
6
CONTINUOUS
10
253.525
20
-233.404
11
253.525
21
-235.141
0
LINE
8
BLACK
6
CONTINUOUS
10
253.525
20
-235.141
11
253.531
21
-235.2
0
LINE
8
BLACK
6
CONTINUOUS
10
253.531
20
-235.2
11
253.508
21
-235.435
0
LINE
8
BLACK
6
CONTINUOUS
10
253.508
20
-235.435
11
253.439
21
-235.661
0
LINE
8
BLACK
6
CONTINUOUS
10
253.439
20
-235.661
11
253.328
21
-235.87
0
LINE
8
BLACK
6
CONTINUOUS
10
253.328
20
-235.87
11
253.178
21
-236.053
0
LINE
8
BLACK
6
CONTINUOUS
10
253.178
20
-236.053
11
252.995
21
-236.203
0
LINE
8
BLACK
6
CONTINUOUS
10
252.995
20
-236.203
11
252.786
21
-236.314
0
LINE
8
BLACK
6
CONTINUOUS
10
252.786
20
-236.314
11
252.56
21
-236.383
0
LINE
8
BLACK
6
CONTINUOUS
10
252.56
20
-236.383
11
252.384
21
-236.4
0
LINE
8
BLACK
6
CONTINUOUS
10
252.384
20
-236.4
11
252.325
21
-236.406
0
LINE
8
BLACK
6
CONTINUOUS
10
252.325
20
-236.406
11
252.266
21
-236.4
0
LINE
8
BLACK
6
CONTINUOUS
10
252.266
20
-236.4
11
225.584
21
-236.4
0
LINE
8
BLACK
6
CONTINUOUS
10
225.584
20
-236.4
11
225.525
21
-236.406
0
LINE
8
BLACK
6
CONTINUOUS
10
225.525
20
-236.406
11
225.466
21
-236.4
0
LINE
8
BLACK
6
CONTINUOUS
10
225.466
20
-236.4
11
213.609
21
-236.4
0
LINE
8
BLACK
6
CONTINUOUS
10
213.609
20
-236.4
11
213.55
21
-236.406
0
LINE
8
BLACK
6
CONTINUOUS
10
213.55
20
-236.406
11
213.491
21
-236.4
0
LINE
8
BLACK
6
CONTINUOUS
10
213.491
20
-236.4
11
196.134
21
-236.4
0
LINE
8
BLACK
6
CONTINUOUS
10
196.134
20
-236.4
11
196.075
21
-236.406
0
LINE
8
BLACK
6
CONTINUOUS
10
196.075
20
-236.406
11
196.016
21
-236.4
0
LINE
8
BLACK
6
CONTINUOUS
10
196.016
20
-236.4
11
182.55
21
-236.4
0
LINE
8
BLACK
6
CONTINUOUS
10
182.55
20
-236.4
11
182.491
21
-236.406
0
LINE
8
BLACK
6
CONTINUOUS
10
182.491
20
-236.406
11
182.256
21
-236.383
0
LINE
8
BLACK
6
CONTINUOUS
10
182.256
20
-236.383
11
182.03
21
-236.314
0
LINE
8
BLACK
6
CONTINUOUS
10
182.03
20
-236.314
11
181.821
21
-236.203
0
LINE
8
BLACK
6
CONTINUOUS
10
181.821
20
-236.203
11
181.639
21
-236.053
0
LINE
8
BLACK
6
CONTINUOUS
10
181.639
20
-236.053
11
181.489
21
-235.87
0
LINE
8
BLACK
6
CONTINUOUS
10
181.489
20
-235.87
11
181.377
21
-235.661
0
LINE
8
BLACK
6
CONTINUOUS
10
181.377
20
-235.661
11
181.309
21
-235.435
0
LINE
8
BLACK
6
CONTINUOUS
10
181.309
20
-235.435
11
181.286
21
-235.2
0
LINE
8
BLACK
6
CONTINUOUS
10
181.286
20
-235.2
11
181.291
21
-235.141
0
LINE
8
BLACK
6
CONTINUOUS
10
181.291
20
-235.141
11
181.291
21
-230.1
0
LINE
8
BLACK
6
CONTINUOUS
10
181.291
20
-230.1
11
168.509
21
-230.1
0
LINE
8
BLACK
6
CONTINUOUS
10
168.509
20
-230.1
11
168.45
21
-230.106
0
LINE
8
BLACK
6
CONTINUOUS
10
168.45
20
-230.106
11
168.215
21
-230.083
0
LINE
8
BLACK
6
CONTINUOUS
10
168.215
20
-230.083
11
167.989
21
-230.014
0
LINE
8
BLACK
6
CONTINUOUS
10
167.989
20
-230.014
11
167.78
21
-229.903
0
LINE
8
BLACK
6
CONTINUOUS
10
167.78
20
-229.903
11
167.597
21
-229.753
0
LINE
8
BLACK
6
CONTINUOUS
10
167.597
20
-229.753
11
167.447
21
-229.57
0
LINE
8
BLACK
6
CONTINUOUS
10
167.447
20
-229.57
11
167.336
21
-229.361
0
LINE
8
BLACK
6
CONTINUOUS
10
167.336
20
-229.361
11
167.267
21
-229.135
0
LINE
8
BLACK
6
CONTINUOUS
10
167.267
20
-229.135
11
167.25
21
-228.959
0
LINE
8
BLACK
6
CONTINUOUS
10
167.25
20
-228.959
11
167.25
21
-228.917
0
LINE
8
BLACK
6
CONTINUOUS
10
167.25
20
-228.917
11
167.248
21
-228.9
0
LINE
8
BLACK
6
CONTINUOUS
10
167.248
20
-228.9
11
167.25
21
-228.883
0
LINE
8
BLACK
6
CONTINUOUS
10
167.25
20
-228.883
11
167.25
21
-226.696
0
LINE
8
BLACK
6
CONTINUOUS
10
167.25
20
-226.696
11
160.675
21
-226.696
0
LINE
8
BLACK
6
CONTINUOUS
10
160.675
20
-226.696
11
160.675
21
-228.116
0
LINE
8
BLACK
6
CONTINUOUS
10
160.675
20
-228.116
11
160.681
21
-228.175
0
LINE
8
BLACK
6
CONTINUOUS
10
160.681
20
-228.175
11
160.675
21
-228.234
0
LINE
8
BLACK
6
CONTINUOUS
10
160.675
20
-228.234
11
160.675
21
-228.239
0
LINE
8
BLACK
6
CONTINUOUS
10
160.675
20
-228.239
11
160.658
21
-228.416
0
LINE
8
BLACK
6
CONTINUOUS
10
160.658
20
-228.416
11
160.589
21
-228.642
0
LINE
8
BLACK
6
CONTINUOUS
10
160.589
20
-228.642
11
160.478
21
-228.85
0
LINE
8
BLACK
6
CONTINUOUS
10
160.478
20
-228.85
11
160.328
21
-229.033
0
LINE
8
BLACK
6
CONTINUOUS
10
160.328
20
-229.033
11
160.145
21
-229.183
0
LINE
8
BLACK
6
CONTINUOUS
10
160.145
20
-229.183
11
159.936
21
-229.294
0
LINE
8
BLACK
6
CONTINUOUS
10
159.936
20
-229.294
11
159.71
21
-229.363
0
LINE
8
BLACK
6
CONTINUOUS
10
159.71
20
-229.363
11
159.475
21
-229.386
0
LINE
8
BLACK
6
CONTINUOUS
10
159.475
20
-229.386
11
159.361
21
-229.375
0
LINE
8
BLACK
6
CONTINUOUS
10
159.361
20
-229.375
11
149.764
21
-229.375
0
LINE
8
BLACK
6
CONTINUOUS
10
149.764
20
-229.375
11
149.65
21
-229.386
0
LINE
8
BLACK
6
CONTINUOUS
10
149.65
20
-229.386
11
149.536
21
-229.375
0
LINE
8
BLACK
6
CONTINUOUS
10
149.536
20
-229.375
11
138.259
21
-229.375
0
LINE
8
BLACK
6
CONTINUOUS
10
138.259
20
-229.375
11
138.2
21
-229.381
0
LINE
8
BLACK
6
CONTINUOUS
10
138.2
20
-229.381
11
137.965
21
-229.358
0
LINE
8
BLACK
6
CONTINUOUS
10
137.965
20
-229.358
11
137.739
21
-229.289
0
LINE
8
BLACK
6
CONTINUOUS
10
137.739
20
-229.289
11
137.53
21
-229.178
0
LINE
8
BLACK
6
CONTINUOUS
10
137.53
20
-229.178
11
137.347
21
-229.028
0
LINE
8
BLACK
6
CONTINUOUS
10
137.347
20
-229.028
11
137.285
21
-228.952
0
LINE
8
BLACK
6
CONTINUOUS
10
137.285
20
-228.952
11
137.197
21
-228.845
0
LINE
8
BLACK
6
CONTINUOUS
10
137.197
20
-228.845
11
137.086
21
-228.636
0
LINE
8
BLACK
6
CONTINUOUS
10
137.086
20
-228.636
11
137.017
21
-228.41
0
LINE
8
BLACK
6
CONTINUOUS
10
137.017
20
-228.41
11
136.994
21
-228.175
0
LINE
8
BLACK
6
CONTINUOUS
10
136.994
20
-228.175
11
137
21
-228.116
0
LINE
8
BLACK
6
CONTINUOUS
10
137
20
-228.116
11
137
21
-213.159
0
LINE
8
BLACK
6
CONTINUOUS
10
137
20
-213.159
11
136.994
21
-213.1
0
LINE
8
BLACK
6
CONTINUOUS
10
136.994
20
-213.1
11
137
21
-213.041
0
LINE
8
BLACK
6
CONTINUOUS
10
137
20
-213.041
11
137
21
-213.036
0
LINE
8
BLACK
6
CONTINUOUS
10
137
20
-213.036
11
137.017
21
-212.859
0
LINE
8
BLACK
6
CONTINUOUS
10
137.017
20
-212.859
11
137.086
21
-212.633
0
LINE
8
BLACK
6
CONTINUOUS
10
137.086
20
-212.633
11
137.197
21
-212.425
0
LINE
8
BLACK
6
CONTINUOUS
10
137.197
20
-212.425
11
137.347
21
-212.242
0
LINE
8
BLACK
6
CONTINUOUS
10
137.347
20
-212.242
11
137.53
21
-212.092
0
LINE
8
BLACK
6
CONTINUOUS
10
137.53
20
-212.092
11
137.739
21
-211.981
0
LINE
8
BLACK
6
CONTINUOUS
10
137.739
20
-211.981
11
137.965
21
-211.912
0
LINE
8
BLACK
6
CONTINUOUS
10
137.965
20
-211.912
11
138.2
21
-211.889
0
LINE
8
BLACK
6
CONTINUOUS
10
138.2
20
-211.889
11
138.313
21
-211.9
0
LINE
8
BLACK
6
CONTINUOUS
10
138.313
20
-211.9
11
149.591
21
-211.9
0
LINE
8
BLACK
6
CONTINUOUS
10
149.591
20
-211.9
11
149.65
21
-211.894
0
LINE
8
BLACK
6
CONTINUOUS
10
149.65
20
-211.894
11
149.709
21
-211.9
0
LINE
8
BLACK
6
CONTINUOUS
10
149.709
20
-211.9
11
149.85
21
-211.9
0
LINE
8
BLACK
6
CONTINUOUS
10
149.85
20
-211.9
11
149.85
21
-206.534
0
LINE
8
BLACK
6
CONTINUOUS
10
149.85
20
-206.534
11
149.844
21
-206.475
0
LINE
8
BLACK
6
CONTINUOUS
10
149.844
20
-206.475
11
149.85
21
-206.416
0
LINE
8
BLACK
6
CONTINUOUS
10
149.85
20
-206.416
11
149.85
21
-195.947
0
LINE
8
BLACK
6
CONTINUOUS
10
149.85
20
-195.947
11
149.003
21
-195.1
0
LINE
8
BLACK
6
CONTINUOUS
10
149.003
20
-195.1
11
138.309
21
-195.1
0
LINE
8
BLACK
6
CONTINUOUS
10
138.309
20
-195.1
11
138.25
21
-195.106
0
LINE
8
BLACK
6
CONTINUOUS
10
138.25
20
-195.106
11
138.015
21
-195.083
0
LINE
8
BLACK
6
CONTINUOUS
10
138.015
20
-195.083
11
137.789
21
-195.014
0
LINE
8
BLACK
6
CONTINUOUS
10
137.789
20
-195.014
11
137.58
21
-194.903
0
LINE
8
BLACK
6
CONTINUOUS
10
137.58
20
-194.903
11
137.397
21
-194.753
0
LINE
8
BLACK
6
CONTINUOUS
10
137.397
20
-194.753
11
137.386
21
-194.739
0
LINE
8
BLACK
6
CONTINUOUS
10
137.386
20
-194.739
11
137.247
21
-194.57
0
LINE
8
BLACK
6
CONTINUOUS
10
137.247
20
-194.57
11
137.136
21
-194.361
0
LINE
8
BLACK
6
CONTINUOUS
10
137.136
20
-194.361
11
137.067
21
-194.135
0
LINE
8
BLACK
6
CONTINUOUS
10
137.067
20
-194.135
11
137.044
21
-193.9
0
LINE
8
BLACK
6
CONTINUOUS
10
137.044
20
-193.9
11
137.05
21
-193.841
0
LINE
8
BLACK
6
CONTINUOUS
10
137.05
20
-193.841
11
137.05
21
-182.025
0
LINE
8
BLACK
6
CONTINUOUS
10
137.05
20
-182.025
11
136.992
21
-181.835
0
LINE
8
BLACK
6
CONTINUOUS
10
136.992
20
-181.835
11
136.969
21
-181.6
0
LINE
8
BLACK
6
CONTINUOUS
10
136.969
20
-181.6
11
136.992
21
-181.365
0
LINE
8
BLACK
6
CONTINUOUS
10
136.992
20
-181.365
11
137
21
-181.34
0
LINE
8
BLACK
6
CONTINUOUS
10
137
20
-181.34
11
137
21
-146.234
0
LINE
8
BLACK
6
CONTINUOUS
10
137
20
-146.234
11
137
21
-146.234
0
LINE
8
BLACK
6
CONTINUOUS
10
137
20
-146.234
11
137
21
-146.049
0
LINE
8
BLACK
6
CONTINUOUS
10
137
20
-146.049
11
136.994
21
-145.99
0
LINE
8
BLACK
6
CONTINUOUS
10
136.994
20
-145.99
11
137
21
-145.931
0
LINE
8
BLACK
6
CONTINUOUS
10
137
20
-145.931
11
137
21
-138.215
0
LINE
8
BLACK
6
CONTINUOUS
10
137
20
-138.215
11
137
21
-131.009
0
LINE
8
BLACK
6
CONTINUOUS
10
137
20
-131.009
11
136.994
21
-130.95
0
LINE
8
BLACK
6
CONTINUOUS
10
136.994
20
-130.95
11
137
21
-130.891
0
LINE
8
BLACK
6
CONTINUOUS
10
137
20
-130.891
11
137
21
-96.2338
0
LINE
8
BLACK
6
CONTINUOUS
10
137
20
-96.2338
11
136.994
21
-96.175
0
LINE
8
BLACK
6
CONTINUOUS
10
136.994
20
-96.175
11
137
21
-96.1162
0
LINE
8
BLACK
6
CONTINUOUS
10
137
20
-96.1162
11
137
21
-96.1161
0
LINE
8
BLACK
6
CONTINUOUS
10
137
20
-96.1161
11
137
21
-96.1159
0
LINE
8
BLACK
6
CONTINUOUS
10
137
20
-96.1159
11
137
21
-81.159
0
LINE
8
BLACK
6
CONTINUOUS
10
137
20
-81.159
11
136.994
21
-81.1
0
LINE
8
BLACK
6
CONTINUOUS
10
136.994
20
-81.1
11
137
21
-81.041
0
LINE
8
BLACK
6
CONTINUOUS
10
137
20
-81.041
11
137
21
-81.0357
0
LINE
8
BLACK
6
CONTINUOUS
10
137
20
-81.0357
11
137.017
21
-80.8594
0
LINE
8
BLACK
6
CONTINUOUS
10
137.017
20
-80.8594
11
137.077
21
-80.6613
0
LINE
8
BLACK
6
CONTINUOUS
10
137.077
20
-80.6613
11
137.077
21
-62.1685
0
LINE
8
BLACK
6
CONTINUOUS
10
137.077
20
-62.1685
11
137.067
21
-62.1352
0
LINE
8
BLACK
6
CONTINUOUS
10
137.067
20
-62.1352
11
137.044
21
-61.9
0
LINE
8
BLACK
6
CONTINUOUS
10
137.044
20
-61.9
11
137.05
21
-61.841
0
LINE
8
BLACK
6
CONTINUOUS
10
137.05
20
-61.841
11
137.05
21
-50.0252
0
LINE
8
BLACK
6
CONTINUOUS
10
137.05
20
-50.0252
11
136.992
21
-49.8352
0
LINE
8
BLACK
6
CONTINUOUS
10
136.992
20
-49.8352
11
136.969
21
-49.6
0
LINE
8
BLACK
6
CONTINUOUS
10
136.969
20
-49.6
11
136.992
21
-49.3648
0
LINE
8
BLACK
6
CONTINUOUS
10
136.992
20
-49.3648
11
137.061
21
-49.1386
0
LINE
8
BLACK
6
CONTINUOUS
10
137.061
20
-49.1386
11
137.172
21
-48.9301
0
LINE
8
BLACK
6
CONTINUOUS
10
137.172
20
-48.9301
11
137.322
21
-48.7474
0
LINE
8
BLACK
6
CONTINUOUS
10
137.322
20
-48.7474
11
137.505
21
-48.5974
0
LINE
8
BLACK
6
CONTINUOUS
10
137.505
20
-48.5974
11
137.714
21
-48.486
0
LINE
8
BLACK
6
CONTINUOUS
10
137.714
20
-48.486
11
137.94
21
-48.4174
0
LINE
8
BLACK
6
CONTINUOUS
10
137.94
20
-48.4174
11
138.116
21
-48.4
0
LINE
8
BLACK
6
CONTINUOUS
10
138.116
20
-48.4
11
138.191
21
-48.4
0
LINE
8
BLACK
6
CONTINUOUS
10
138.191
20
-48.4
11
138.25
21
-48.3942
0
LINE
8
BLACK
6
CONTINUOUS
10
138.25
20
-48.3942
11
138.309
21
-48.4
0
LINE
8
BLACK
6
CONTINUOUS
10
138.309
20
-48.4
11
162.65
21
-48.4
0
LINE
8
BLACK
6
CONTINUOUS
10
162.65
20
-48.4
11
162.672
21
-48.3724
0
LINE
8
BLACK
6
CONTINUOUS
10
162.672
20
-48.3724
11
162.718
21
-48.3348
0
LINE
8
BLACK
6
CONTINUOUS
10
162.718
20
-48.3348
11
167.085
21
-43.9682
0
LINE
8
BLACK
6
CONTINUOUS
10
167.085
20
-43.9682
11
167.122
21
-43.9224
0
LINE
8
BLACK
6
CONTINUOUS
10
167.122
20
-43.9224
11
167.305
21
-43.7724
0
LINE
8
BLACK
6
CONTINUOUS
10
167.305
20
-43.7724
11
167.514
21
-43.661
0
LINE
8
BLACK
6
CONTINUOUS
10
167.514
20
-43.661
11
167.74
21
-43.5924
0
LINE
8
BLACK
6
CONTINUOUS
10
167.74
20
-43.5924
11
167.916
21
-43.575
0
LINE
8
BLACK
6
CONTINUOUS
10
167.916
20
-43.575
11
167.916
21
-43.575
0
LINE
8
BLACK
6
CONTINUOUS
10
167.916
20
-43.575
11
167.975
21
-43.5692
0
LINE
8
BLACK
6
CONTINUOUS
10
167.975
20
-43.5692
11
168.034
21
-43.575
0
LINE
8
BLACK
6
CONTINUOUS
10
168.034
20
-43.575
11
176.416
21
-43.575
0
LINE
8
BLACK
6
CONTINUOUS
10
176.416
20
-43.575
11
176.475
21
-43.5692
0
LINE
8
BLACK
6
CONTINUOUS
10
176.475
20
-43.5692
11
176.534
21
-43.575
0
LINE
8
BLACK
6
CONTINUOUS
10
176.534
20
-43.575
11
176.534
21
-43.575
0
LINE
8
BLACK
6
CONTINUOUS
10
176.534
20
-43.575
11
176.71
21
-43.5924
0
LINE
8
BLACK
6
CONTINUOUS
10
176.71
20
-43.5924
11
176.936
21
-43.661
0
LINE
8
BLACK
6
CONTINUOUS
10
176.936
20
-43.661
11
177.145
21
-43.7724
0
LINE
8
BLACK
6
CONTINUOUS
10
177.145
20
-43.7724
11
177.328
21
-43.9224
0
LINE
8
BLACK
6
CONTINUOUS
10
177.328
20
-43.9224
11
177.365
21
-43.9682
0
LINE
8
BLACK
6
CONTINUOUS
10
177.365
20
-43.9682
11
179.432
21
-46.0348
0
LINE
8
BLACK
6
CONTINUOUS
10
179.432
20
-46.0348
11
179.478
21
-46.0724
0
LINE
8
BLACK
6
CONTINUOUS
10
179.478
20
-46.0724
11
179.573
21
-46.1891
0
LINE
8
BLACK
6
CONTINUOUS
10
179.573
20
-46.1891
11
179.628
21
-46.2551
0
LINE
8
BLACK
6
CONTINUOUS
10
179.628
20
-46.2551
11
179.739
21
-46.4636
0
LINE
8
BLACK
6
CONTINUOUS
10
179.739
20
-46.4636
11
179.808
21
-46.6898
0
LINE
8
BLACK
6
CONTINUOUS
10
179.808
20
-46.6898
11
179.825
21
-46.8661
0
LINE
8
BLACK
6
CONTINUOUS
10
179.825
20
-46.8661
11
179.831
21
-46.925
0
LINE
8
BLACK
6
CONTINUOUS
10
179.831
20
-46.925
11
179.825
21
-46.9839
0
LINE
8
BLACK
6
CONTINUOUS
10
179.825
20
-46.9839
11
179.825
21
-48.4
0
LINE
8
BLACK
6
CONTINUOUS
10
179.825
20
-48.4
11
194.141
21
-48.4
0
LINE
8
BLACK
6
CONTINUOUS
10
194.141
20
-48.4
11
194.2
21
-48.3942
0
LINE
8
BLACK
6
CONTINUOUS
10
194.2
20
-48.3942
11
194.259
21
-48.4
0
LINE
8
BLACK
6
CONTINUOUS
10
194.259
20
-48.4
11
207.191
21
-48.4
0
LINE
8
BLACK
6
CONTINUOUS
10
207.191
20
-48.4
11
207.25
21
-48.3942
0
LINE
8
BLACK
6
CONTINUOUS
10
207.25
20
-48.3942
11
207.309
21
-48.4
0
LINE
8
BLACK
6
CONTINUOUS
10
207.309
20
-48.4
11
221.466
21
-48.4
0
LINE
8
BLACK
6
CONTINUOUS
10
221.466
20
-48.4
11
221.525
21
-48.3942
0
LINE
8
BLACK
6
CONTINUOUS
10
221.525
20
-48.3942
11
221.584
21
-48.4
0
LINE
8
BLACK
6
CONTINUOUS
10
221.584
20
-48.4
11
235.816
21
-48.4
0
LINE
8
BLACK
6
CONTINUOUS
10
235.816
20
-48.4
11
235.875
21
-48.3942
0
LINE
8
BLACK
6
CONTINUOUS
10
235.875
20
-48.3942
11
235.934
21
-48.4
0
LINE
8
BLACK
6
CONTINUOUS
10
235.934
20
-48.4
11
245.891
21
-48.4
0
LINE
8
BLACK
6
CONTINUOUS
10
245.891
20
-48.4
11
245.95
21
-48.3942
0
LINE
8
BLACK
6
CONTINUOUS
10
245.95
20
-48.3942
11
246.009
21
-48.4
0
LINE
8
BLACK
6
CONTINUOUS
10
246.009
20
-48.4
11
256.191
21
-48.4
0
LINE
8
BLACK
6
CONTINUOUS
10
256.191
20
-48.4
11
256.25
21
-48.3942
0
LINE
8
BLACK
6
CONTINUOUS
10
256.25
20
-48.3942
11
256.309
21
-48.4
0
LINE
8
BLACK
6
CONTINUOUS
10
256.309
20
-48.4
11
256.485
21
-48.4174
0
LINE
8
BLACK
6
CONTINUOUS
10
256.485
20
-48.4174
11
256.711
21
-48.486
0
LINE
8
BLACK
6
CONTINUOUS
10
256.711
20
-48.486
11
256.92
21
-48.5974
0
LINE
8
BLACK
6
CONTINUOUS
10
256.92
20
-48.5974
11
257.103
21
-48.7474
0
LINE
8
BLACK
6
CONTINUOUS
10
257.103
20
-48.7474
11
257.253
21
-48.9301
0
LINE
8
BLACK
6
CONTINUOUS
10
257.253
20
-48.9301
11
257.364
21
-49.1386
0
LINE
8
BLACK
6
CONTINUOUS
10
257.364
20
-49.1386
11
257.433
21
-49.3648
0
LINE
8
BLACK
6
CONTINUOUS
10
257.433
20
-49.3648
11
257.456
21
-49.6
0
LINE
8
BLACK
6
CONTINUOUS
10
257.456
20
-49.6
11
257.45
21
-49.6589
0
LINE
8
BLACK
6
CONTINUOUS
10
257.45
20
-49.6589
11
257.45
21
-67.416
0
LINE
8
BLACK
6
CONTINUOUS
10
257.45
20
-67.416
11
257.456
21
-67.475
0
LINE
8
BLACK
6
CONTINUOUS
10
226.725
20
-234
11
251.125
21
-234
0
LINE
8
BLACK
6
CONTINUOUS
10
251.125
20
-234
11
251.125
21
-232.262
0
LINE
8
BLACK
6
CONTINUOUS
10
251.125
20
-232.262
11
251.119
21
-232.204
0
LINE
8
BLACK
6
CONTINUOUS
10
251.119
20
-232.204
11
251.125
21
-232.145
0
LINE
8
BLACK
6
CONTINUOUS
10
251.125
20
-232.145
11
251.125
21
-216.1
0
LINE
8
BLACK
6
CONTINUOUS
10
251.125
20
-216.1
11
247.15
21
-216.1
0
LINE
8
BLACK
6
CONTINUOUS
10
247.15
20
-216.1
11
247.15
21
-228.216
0
LINE
8
BLACK
6
CONTINUOUS
10
247.15
20
-228.216
11
247.156
21
-228.275
0
LINE
8
BLACK
6
CONTINUOUS
10
247.156
20
-228.275
11
247.133
21
-228.51
0
LINE
8
BLACK
6
CONTINUOUS
10
247.133
20
-228.51
11
247.064
21
-228.736
0
LINE
8
BLACK
6
CONTINUOUS
10
247.064
20
-228.736
11
246.953
21
-228.945
0
LINE
8
BLACK
6
CONTINUOUS
10
246.953
20
-228.945
11
246.803
21
-229.128
0
LINE
8
BLACK
6
CONTINUOUS
10
246.803
20
-229.128
11
246.62
21
-229.278
0
LINE
8
BLACK
6
CONTINUOUS
10
246.62
20
-229.278
11
246.411
21
-229.389
0
LINE
8
BLACK
6
CONTINUOUS
10
246.411
20
-229.389
11
246.185
21
-229.458
0
LINE
8
BLACK
6
CONTINUOUS
10
246.185
20
-229.458
11
246.009
21
-229.475
0
LINE
8
BLACK
6
CONTINUOUS
10
246.009
20
-229.475
11
245.95
21
-229.481
0
LINE
8
BLACK
6
CONTINUOUS
10
245.95
20
-229.481
11
245.891
21
-229.475
0
LINE
8
BLACK
6
CONTINUOUS
10
245.891
20
-229.475
11
226.725
21
-229.475
0
LINE
8
BLACK
6
CONTINUOUS
10
226.725
20
-229.475
11
226.725
21
-234
0
LINE
8
BLACK
6
CONTINUOUS
10
197.275
20
-229.05
11
197.275
21
-234
0
LINE
8
BLACK
6
CONTINUOUS
10
197.275
20
-234
11
212.35
21
-234
0
LINE
8
BLACK
6
CONTINUOUS
10
212.35
20
-234
11
212.35
21
-229.05
0
LINE
8
BLACK
6
CONTINUOUS
10
212.35
20
-229.05
11
197.275
21
-229.05
0
LINE
8
BLACK
6
CONTINUOUS
10
214.75
20
-227.791
11
214.756
21
-227.85
0
LINE
8
BLACK
6
CONTINUOUS
10
214.756
20
-227.85
11
214.75
21
-227.909
0
LINE
8
BLACK
6
CONTINUOUS
10
214.75
20
-227.909
11
214.75
21
-234
0
LINE
8
BLACK
6
CONTINUOUS
10
214.75
20
-234
11
224.325
21
-234
0
LINE
8
BLACK
6
CONTINUOUS
10
224.325
20
-234
11
224.325
21
-229.475
0
LINE
8
BLACK
6
CONTINUOUS
10
224.325
20
-229.475
11
222.757
21
-229.475
0
LINE
8
BLACK
6
CONTINUOUS
10
222.757
20
-229.475
11
222.625
21
-229.488
0
LINE
8
BLACK
6
CONTINUOUS
10
222.625
20
-229.488
11
222.39
21
-229.465
0
LINE
8
BLACK
6
CONTINUOUS
10
222.39
20
-229.465
11
222.164
21
-229.396
0
LINE
8
BLACK
6
CONTINUOUS
10
222.164
20
-229.396
11
221.955
21
-229.285
0
LINE
8
BLACK
6
CONTINUOUS
10
221.955
20
-229.285
11
221.772
21
-229.135
0
LINE
8
BLACK
6
CONTINUOUS
10
221.772
20
-229.135
11
221.622
21
-228.952
0
LINE
8
BLACK
6
CONTINUOUS
10
221.622
20
-228.952
11
221.511
21
-228.744
0
LINE
8
BLACK
6
CONTINUOUS
10
221.511
20
-228.744
11
221.442
21
-228.517
0
LINE
8
BLACK
6
CONTINUOUS
10
221.442
20
-228.517
11
221.425
21
-228.341
0
LINE
8
BLACK
6
CONTINUOUS
10
221.425
20
-228.341
11
221.425
21
-228.334
0
LINE
8
BLACK
6
CONTINUOUS
10
221.425
20
-228.334
11
221.419
21
-228.275
0
LINE
8
BLACK
6
CONTINUOUS
10
221.419
20
-228.275
11
221.425
21
-228.216
0
LINE
8
BLACK
6
CONTINUOUS
10
221.425
20
-228.216
11
221.425
21
-224.326
0
LINE
8
BLACK
6
CONTINUOUS
10
221.425
20
-224.326
11
214.75
21
-224.326
0
LINE
8
BLACK
6
CONTINUOUS
10
214.75
20
-224.326
11
214.75
21
-227.791
0
LINE
8
BLACK
6
CONTINUOUS
10
184.55
20
-221.34
11
184.55
21
-227.691
0
LINE
8
BLACK
6
CONTINUOUS
10
184.55
20
-227.691
11
184.556
21
-227.75
0
LINE
8
BLACK
6
CONTINUOUS
10
184.556
20
-227.75
11
184.55
21
-227.809
0
LINE
8
BLACK
6
CONTINUOUS
10
184.55
20
-227.809
11
184.55
21
-227.809
0
LINE
8
BLACK
6
CONTINUOUS
10
184.55
20
-227.809
11
184.533
21
-227.985
0
LINE
8
BLACK
6
CONTINUOUS
10
184.533
20
-227.985
11
184.464
21
-228.211
0
LINE
8
BLACK
6
CONTINUOUS
10
184.464
20
-228.211
11
184.353
21
-228.42
0
LINE
8
BLACK
6
CONTINUOUS
10
184.353
20
-228.42
11
184.203
21
-228.603
0
LINE
8
BLACK
6
CONTINUOUS
10
184.203
20
-228.603
11
184.157
21
-228.64
0
LINE
8
BLACK
6
CONTINUOUS
10
184.157
20
-228.64
11
183.691
21
-229.106
0
LINE
8
BLACK
6
CONTINUOUS
10
183.691
20
-229.106
11
183.691
21
-234
0
LINE
8
BLACK
6
CONTINUOUS
10
183.691
20
-234
11
194.875
21
-234
0
LINE
8
BLACK
6
CONTINUOUS
10
194.875
20
-234
11
194.875
21
-227.909
0
LINE
8
BLACK
6
CONTINUOUS
10
194.875
20
-227.909
11
194.869
21
-227.85
0
LINE
8
BLACK
6
CONTINUOUS
10
194.869
20
-227.85
11
194.875
21
-227.791
0
LINE
8
BLACK
6
CONTINUOUS
10
194.875
20
-227.791
11
194.875
21
-221.34
0
LINE
8
BLACK
6
CONTINUOUS
10
194.875
20
-221.34
11
184.55
21
-221.34
0
LINE
8
BLACK
6
CONTINUOUS
10
270.609
20
-204.679
11
270.55
21
-204.685
0
LINE
8
BLACK
6
CONTINUOUS
10
270.55
20
-204.685
11
270.491
21
-204.679
0
LINE
8
BLACK
6
CONTINUOUS
10
270.491
20
-204.679
11
253.525
21
-204.679
0
LINE
8
BLACK
6
CONTINUOUS
10
253.525
20
-204.679
11
253.525
21
-214.841
0
LINE
8
BLACK
6
CONTINUOUS
10
253.525
20
-214.841
11
253.531
21
-214.9
0
LINE
8
BLACK
6
CONTINUOUS
10
253.531
20
-214.9
11
253.525
21
-214.959
0
LINE
8
BLACK
6
CONTINUOUS
10
253.525
20
-214.959
11
253.525
21
-231.004
0
LINE
8
BLACK
6
CONTINUOUS
10
253.525
20
-231.004
11
285.875
21
-231.004
0
LINE
8
BLACK
6
CONTINUOUS
10
285.875
20
-231.004
11
285.875
21
-204.679
0
LINE
8
BLACK
6
CONTINUOUS
10
285.875
20
-204.679
11
270.609
21
-204.679
0
LINE
8
BLACK
6
CONTINUOUS
10
169.65
20
-218.075
11
169.65
21
-225.395
0
LINE
8
BLACK
6
CONTINUOUS
10
169.65
20
-225.395
11
169.66
21
-225.496
0
LINE
8
BLACK
6
CONTINUOUS
10
169.66
20
-225.496
11
169.65
21
-225.597
0
LINE
8
BLACK
6
CONTINUOUS
10
169.65
20
-225.597
11
169.65
21
-227.7
0
LINE
8
BLACK
6
CONTINUOUS
10
169.65
20
-227.7
11
181.703
21
-227.7
0
LINE
8
BLACK
6
CONTINUOUS
10
181.703
20
-227.7
11
182.15
21
-227.253
0
LINE
8
BLACK
6
CONTINUOUS
10
182.15
20
-227.253
11
182.15
21
-218.075
0
LINE
8
BLACK
6
CONTINUOUS
10
182.15
20
-218.075
11
169.65
21
-218.075
0
LINE
8
BLACK
6
CONTINUOUS
10
194.2
20
-196.406
11
194.141
21
-196.4
0
LINE
8
BLACK
6
CONTINUOUS
10
194.141
20
-196.4
11
192.6
21
-196.4
0
LINE
8
BLACK
6
CONTINUOUS
10
192.6
20
-196.4
11
192.6
21
-205.32
0
LINE
8
BLACK
6
CONTINUOUS
10
192.6
20
-205.32
11
192.736
21
-205.361
0
LINE
8
BLACK
6
CONTINUOUS
10
192.736
20
-205.361
11
192.945
21
-205.472
0
LINE
8
BLACK
6
CONTINUOUS
10
192.945
20
-205.472
11
193.082
21
-205.585
0
LINE
8
BLACK
6
CONTINUOUS
10
193.082
20
-205.585
11
196.882
21
-209.385
0
LINE
8
BLACK
6
CONTINUOUS
10
196.882
20
-209.385
11
196.928
21
-209.422
0
LINE
8
BLACK
6
CONTINUOUS
10
196.928
20
-209.422
11
197.078
21
-209.605
0
LINE
8
BLACK
6
CONTINUOUS
10
197.078
20
-209.605
11
197.189
21
-209.814
0
LINE
8
BLACK
6
CONTINUOUS
10
197.189
20
-209.814
11
197.258
21
-210.04
0
LINE
8
BLACK
6
CONTINUOUS
10
197.258
20
-210.04
11
197.281
21
-210.275
0
LINE
8
BLACK
6
CONTINUOUS
10
197.281
20
-210.275
11
197.275
21
-210.334
0
LINE
8
BLACK
6
CONTINUOUS
10
197.275
20
-210.334
11
197.275
21
-219.88
0
LINE
8
BLACK
6
CONTINUOUS
10
197.275
20
-219.88
11
197.283
21
-219.905
0
LINE
8
BLACK
6
CONTINUOUS
10
197.283
20
-219.905
11
197.306
21
-220.14
0
LINE
8
BLACK
6
CONTINUOUS
10
197.306
20
-220.14
11
197.283
21
-220.375
0
LINE
8
BLACK
6
CONTINUOUS
10
197.283
20
-220.375
11
197.275
21
-220.4
0
LINE
8
BLACK
6
CONTINUOUS
10
197.275
20
-220.4
11
197.275
21
-226.65
0
LINE
8
BLACK
6
CONTINUOUS
10
197.275
20
-226.65
11
212.35
21
-226.65
0
LINE
8
BLACK
6
CONTINUOUS
10
212.35
20
-226.65
11
212.35
21
-223.185
0
LINE
8
BLACK
6
CONTINUOUS
10
212.35
20
-223.185
11
212.344
21
-223.126
0
LINE
8
BLACK
6
CONTINUOUS
10
212.344
20
-223.126
11
212.367
21
-222.891
0
LINE
8
BLACK
6
CONTINUOUS
10
212.367
20
-222.891
11
212.436
21
-222.665
0
LINE
8
BLACK
6
CONTINUOUS
10
212.436
20
-222.665
11
212.547
21
-222.457
0
LINE
8
BLACK
6
CONTINUOUS
10
212.547
20
-222.457
11
212.697
21
-222.274
0
LINE
8
BLACK
6
CONTINUOUS
10
212.697
20
-222.274
11
212.88
21
-222.124
0
LINE
8
BLACK
6
CONTINUOUS
10
212.88
20
-222.124
11
213.089
21
-222.012
0
LINE
8
BLACK
6
CONTINUOUS
10
213.089
20
-222.012
11
213.315
21
-221.944
0
LINE
8
BLACK
6
CONTINUOUS
10
213.315
20
-221.944
11
213.491
21
-221.926
0
LINE
8
BLACK
6
CONTINUOUS
10
213.491
20
-221.926
11
213.55
21
-221.921
0
LINE
8
BLACK
6
CONTINUOUS
10
213.55
20
-221.921
11
213.609
21
-221.926
0
LINE
8
BLACK
6
CONTINUOUS
10
213.609
20
-221.926
11
222.566
21
-221.926
0
LINE
8
BLACK
6
CONTINUOUS
10
222.566
20
-221.926
11
222.625
21
-221.921
0
LINE
8
BLACK
6
CONTINUOUS
10
222.625
20
-221.921
11
222.684
21
-221.926
0
LINE
8
BLACK
6
CONTINUOUS
10
222.684
20
-221.926
11
222.86
21
-221.944
0
LINE
8
BLACK
6
CONTINUOUS
10
222.86
20
-221.944
11
223.086
21
-222.012
0
LINE
8
BLACK
6
CONTINUOUS
10
223.086
20
-222.012
11
223.295
21
-222.124
0
LINE
8
BLACK
6
CONTINUOUS
10
223.295
20
-222.124
11
223.478
21
-222.274
0
LINE
8
BLACK
6
CONTINUOUS
10
223.478
20
-222.274
11
223.628
21
-222.457
0
LINE
8
BLACK
6
CONTINUOUS
10
223.628
20
-222.457
11
223.739
21
-222.665
0
LINE
8
BLACK
6
CONTINUOUS
10
223.739
20
-222.665
11
223.808
21
-222.891
0
LINE
8
BLACK
6
CONTINUOUS
10
223.808
20
-222.891
11
223.831
21
-223.126
0
LINE
8
BLACK
6
CONTINUOUS
10
223.831
20
-223.126
11
223.825
21
-223.185
0
LINE
8
BLACK
6
CONTINUOUS
10
223.825
20
-223.185
11
223.825
21
-227.075
0
LINE
8
BLACK
6
CONTINUOUS
10
223.825
20
-227.075
11
244.75
21
-227.075
0
LINE
8
BLACK
6
CONTINUOUS
10
244.75
20
-227.075
11
244.75
21
-214.959
0
LINE
8
BLACK
6
CONTINUOUS
10
244.75
20
-214.959
11
244.744
21
-214.9
0
LINE
8
BLACK
6
CONTINUOUS
10
244.744
20
-214.9
11
244.75
21
-214.841
0
LINE
8
BLACK
6
CONTINUOUS
10
244.75
20
-214.841
11
244.75
21
-199.634
0
LINE
8
BLACK
6
CONTINUOUS
10
244.75
20
-199.634
11
244.75
21
-199.634
0
LINE
8
BLACK
6
CONTINUOUS
10
244.75
20
-199.634
11
244.75
21
-199.534
0
LINE
8
BLACK
6
CONTINUOUS
10
244.75
20
-199.534
11
244.744
21
-199.475
0
LINE
8
BLACK
6
CONTINUOUS
10
244.744
20
-199.475
11
244.75
21
-199.416
0
LINE
8
BLACK
6
CONTINUOUS
10
244.75
20
-199.416
11
244.75
21
-196.4
0
LINE
8
BLACK
6
CONTINUOUS
10
244.75
20
-196.4
11
235.934
21
-196.4
0
LINE
8
BLACK
6
CONTINUOUS
10
235.934
20
-196.4
11
235.875
21
-196.406
0
LINE
8
BLACK
6
CONTINUOUS
10
235.875
20
-196.406
11
235.816
21
-196.4
0
LINE
8
BLACK
6
CONTINUOUS
10
235.816
20
-196.4
11
221.584
21
-196.4
0
LINE
8
BLACK
6
CONTINUOUS
10
221.584
20
-196.4
11
221.525
21
-196.406
0
LINE
8
BLACK
6
CONTINUOUS
10
221.525
20
-196.406
11
221.466
21
-196.4
0
LINE
8
BLACK
6
CONTINUOUS
10
221.466
20
-196.4
11
194.259
21
-196.4
0
LINE
8
BLACK
6
CONTINUOUS
10
194.259
20
-196.4
11
194.2
21
-196.406
0
LINE
8
BLACK
6
CONTINUOUS
10
139.4
20
-214.3
11
139.4
21
-226.975
0
LINE
8
BLACK
6
CONTINUOUS
10
139.4
20
-226.975
11
148.45
21
-226.975
0
LINE
8
BLACK
6
CONTINUOUS
10
148.45
20
-226.975
11
148.45
21
-214.3
0
LINE
8
BLACK
6
CONTINUOUS
10
148.45
20
-214.3
11
139.4
21
-214.3
0
LINE
8
BLACK
6
CONTINUOUS
10
151.109
20
-214.3
11
151.05
21
-214.306
0
LINE
8
BLACK
6
CONTINUOUS
10
151.05
20
-214.306
11
150.991
21
-214.3
0
LINE
8
BLACK
6
CONTINUOUS
10
150.991
20
-214.3
11
150.85
21
-214.3
0
LINE
8
BLACK
6
CONTINUOUS
10
150.85
20
-214.3
11
150.85
21
-226.975
0
LINE
8
BLACK
6
CONTINUOUS
10
150.85
20
-226.975
11
158.275
21
-226.975
0
LINE
8
BLACK
6
CONTINUOUS
10
158.275
20
-226.975
11
158.275
21
-225.555
0
LINE
8
BLACK
6
CONTINUOUS
10
158.275
20
-225.555
11
158.269
21
-225.496
0
LINE
8
BLACK
6
CONTINUOUS
10
158.269
20
-225.496
11
158.275
21
-225.437
0
LINE
8
BLACK
6
CONTINUOUS
10
158.275
20
-225.437
11
158.275
21
-215.352
0
LINE
8
BLACK
6
CONTINUOUS
10
158.275
20
-215.352
11
158.275
21
-215.352
0
LINE
8
BLACK
6
CONTINUOUS
10
158.275
20
-215.352
11
158.275
21
-214.3
0
LINE
8
BLACK
6
CONTINUOUS
10
158.275
20
-214.3
11
151.109
21
-214.3
0
LINE
8
BLACK
6
CONTINUOUS
10
167.25
20
-224.296
11
167.25
21
-216.934
0
LINE
8
BLACK
6
CONTINUOUS
10
167.25
20
-216.934
11
167.25
21
-216.934
0
LINE
8
BLACK
6
CONTINUOUS
10
167.25
20
-216.934
11
167.25
21
-216.892
0
LINE
8
BLACK
6
CONTINUOUS
10
167.25
20
-216.892
11
167.248
21
-216.875
0
LINE
8
BLACK
6
CONTINUOUS
10
167.248
20
-216.875
11
167.25
21
-216.858
0
LINE
8
BLACK
6
CONTINUOUS
10
167.25
20
-216.858
11
167.25
21
-214.3
0
LINE
8
BLACK
6
CONTINUOUS
10
167.25
20
-214.3
11
160.675
21
-214.3
0
LINE
8
BLACK
6
CONTINUOUS
10
160.675
20
-214.3
11
160.675
21
-224.296
0
LINE
8
BLACK
6
CONTINUOUS
10
160.675
20
-224.296
11
167.25
21
-224.296
0
LINE
8
BLACK
6
CONTINUOUS
10
170.8
20
-207.681
11
170.741
21
-207.675
0
LINE
8
BLACK
6
CONTINUOUS
10
170.741
20
-207.675
11
152.25
21
-207.675
0
LINE
8
BLACK
6
CONTINUOUS
10
152.25
20
-207.675
11
152.25
21
-211.9
0
LINE
8
BLACK
6
CONTINUOUS
10
152.25
20
-211.9
11
159.416
21
-211.9
0
LINE
8
BLACK
6
CONTINUOUS
10
159.416
20
-211.9
11
159.475
21
-211.894
0
LINE
8
BLACK
6
CONTINUOUS
10
159.475
20
-211.894
11
159.534
21
-211.9
0
LINE
8
BLACK
6
CONTINUOUS
10
159.534
20
-211.9
11
168.391
21
-211.9
0
LINE
8
BLACK
6
CONTINUOUS
10
168.391
20
-211.9
11
168.45
21
-211.894
0
LINE
8
BLACK
6
CONTINUOUS
10
168.45
20
-211.894
11
168.509
21
-211.9
0
LINE
8
BLACK
6
CONTINUOUS
10
168.509
20
-211.9
11
168.534
21
-211.9
0
LINE
8
BLACK
6
CONTINUOUS
10
168.534
20
-211.9
11
168.71
21
-211.917
0
LINE
8
BLACK
6
CONTINUOUS
10
168.71
20
-211.917
11
168.936
21
-211.986
0
LINE
8
BLACK
6
CONTINUOUS
10
168.936
20
-211.986
11
169.145
21
-212.097
0
LINE
8
BLACK
6
CONTINUOUS
10
169.145
20
-212.097
11
169.328
21
-212.247
0
LINE
8
BLACK
6
CONTINUOUS
10
169.328
20
-212.247
11
169.478
21
-212.43
0
LINE
8
BLACK
6
CONTINUOUS
10
169.478
20
-212.43
11
169.589
21
-212.639
0
LINE
8
BLACK
6
CONTINUOUS
10
169.589
20
-212.639
11
169.658
21
-212.865
0
LINE
8
BLACK
6
CONTINUOUS
10
169.658
20
-212.865
11
169.681
21
-213.1
0
LINE
8
BLACK
6
CONTINUOUS
10
169.681
20
-213.1
11
169.658
21
-213.335
0
LINE
8
BLACK
6
CONTINUOUS
10
169.658
20
-213.335
11
169.65
21
-213.36
0
LINE
8
BLACK
6
CONTINUOUS
10
169.65
20
-213.36
11
169.65
21
-215.675
0
LINE
8
BLACK
6
CONTINUOUS
10
169.65
20
-215.675
11
183.291
21
-215.675
0
LINE
8
BLACK
6
CONTINUOUS
10
183.291
20
-215.675
11
183.35
21
-215.669
0
LINE
8
BLACK
6
CONTINUOUS
10
183.35
20
-215.669
11
183.409
21
-215.675
0
LINE
8
BLACK
6
CONTINUOUS
10
183.409
20
-215.675
11
183.585
21
-215.692
0
LINE
8
BLACK
6
CONTINUOUS
10
183.585
20
-215.692
11
183.811
21
-215.761
0
LINE
8
BLACK
6
CONTINUOUS
10
183.811
20
-215.761
11
184.02
21
-215.872
0
LINE
8
BLACK
6
CONTINUOUS
10
184.02
20
-215.872
11
184.203
21
-216.022
0
LINE
8
BLACK
6
CONTINUOUS
10
184.203
20
-216.022
11
184.353
21
-216.205
0
LINE
8
BLACK
6
CONTINUOUS
10
184.353
20
-216.205
11
184.464
21
-216.414
0
LINE
8
BLACK
6
CONTINUOUS
10
184.464
20
-216.414
11
184.533
21
-216.64
0
LINE
8
BLACK
6
CONTINUOUS
10
184.533
20
-216.64
11
184.556
21
-216.875
0
LINE
8
BLACK
6
CONTINUOUS
10
184.556
20
-216.875
11
184.55
21
-216.934
0
LINE
8
BLACK
6
CONTINUOUS
10
184.55
20
-216.934
11
184.55
21
-218.94
0
LINE
8
BLACK
6
CONTINUOUS
10
184.55
20
-218.94
11
194.875
21
-218.94
0
LINE
8
BLACK
6
CONTINUOUS
10
194.875
20
-218.94
11
194.875
21
-216.62
0
LINE
8
BLACK
6
CONTINUOUS
10
194.875
20
-216.62
11
194.875
21
-216.62
0
LINE
8
BLACK
6
CONTINUOUS
10
194.875
20
-216.62
11
194.875
21
-212.184
0
LINE
8
BLACK
6
CONTINUOUS
10
194.875
20
-212.184
11
194.875
21
-212.184
0
LINE
8
BLACK
6
CONTINUOUS
10
194.875
20
-212.184
11
194.875
21
-210.772
0
LINE
8
BLACK
6
CONTINUOUS
10
194.875
20
-210.772
11
191.731
21
-207.628
0
LINE
8
BLACK
6
CONTINUOUS
10
191.731
20
-207.628
11
191.635
21
-207.658
0
LINE
8
BLACK
6
CONTINUOUS
10
191.635
20
-207.658
11
191.459
21
-207.675
0
LINE
8
BLACK
6
CONTINUOUS
10
191.459
20
-207.675
11
191.4
21
-207.681
0
LINE
8
BLACK
6
CONTINUOUS
10
191.4
20
-207.681
11
191.341
21
-207.675
0
LINE
8
BLACK
6
CONTINUOUS
10
191.341
20
-207.675
11
170.859
21
-207.675
0
LINE
8
BLACK
6
CONTINUOUS
10
170.859
20
-207.675
11
170.8
21
-207.681
0
LINE
8
BLACK
6
CONTINUOUS
10
247.15
20
-200.675
11
247.15
21
-213.7
0
LINE
8
BLACK
6
CONTINUOUS
10
247.15
20
-213.7
11
251.125
21
-213.7
0
LINE
8
BLACK
6
CONTINUOUS
10
251.125
20
-213.7
11
251.125
21
-203.538
0
LINE
8
BLACK
6
CONTINUOUS
10
251.125
20
-203.538
11
251.119
21
-203.479
0
LINE
8
BLACK
6
CONTINUOUS
10
251.119
20
-203.479
11
251.125
21
-203.42
0
LINE
8
BLACK
6
CONTINUOUS
10
251.125
20
-203.42
11
251.125
21
-200.675
0
LINE
8
BLACK
6
CONTINUOUS
10
251.125
20
-200.675
11
247.15
21
-200.675
0
LINE
8
BLACK
6
CONTINUOUS
10
172
20
-196.4
11
172
21
-205.275
0
LINE
8
BLACK
6
CONTINUOUS
10
172
20
-205.275
11
190.2
21
-205.275
0
LINE
8
BLACK
6
CONTINUOUS
10
190.2
20
-205.275
11
190.2
21
-196.4
0
LINE
8
BLACK
6
CONTINUOUS
10
190.2
20
-196.4
11
178.684
21
-196.4
0
LINE
8
BLACK
6
CONTINUOUS
10
178.684
20
-196.4
11
178.625
21
-196.406
0
LINE
8
BLACK
6
CONTINUOUS
10
178.625
20
-196.406
11
178.566
21
-196.4
0
LINE
8
BLACK
6
CONTINUOUS
10
178.566
20
-196.4
11
172
21
-196.4
0
LINE
8
BLACK
6
CONTINUOUS
10
152.25
20
-196.4
11
152.25
21
-205.275
0
LINE
8
BLACK
6
CONTINUOUS
10
152.25
20
-205.275
11
169.6
21
-205.275
0
LINE
8
BLACK
6
CONTINUOUS
10
169.6
20
-205.275
11
169.6
21
-196.4
0
LINE
8
BLACK
6
CONTINUOUS
10
169.6
20
-196.4
11
152.25
21
-196.4
0
LINE
8
BLACK
6
CONTINUOUS
10
257.456
20
-199.475
11
257.433
21
-199.71
0
LINE
8
BLACK
6
CONTINUOUS
10
257.433
20
-199.71
11
257.364
21
-199.936
0
LINE
8
BLACK
6
CONTINUOUS
10
257.364
20
-199.936
11
257.253
21
-200.145
0
LINE
8
BLACK
6
CONTINUOUS
10
257.253
20
-200.145
11
257.103
21
-200.328
0
LINE
8
BLACK
6
CONTINUOUS
10
257.103
20
-200.328
11
256.92
21
-200.478
0
LINE
8
BLACK
6
CONTINUOUS
10
256.92
20
-200.478
11
256.711
21
-200.589
0
LINE
8
BLACK
6
CONTINUOUS
10
256.711
20
-200.589
11
256.485
21
-200.658
0
LINE
8
BLACK
6
CONTINUOUS
10
256.485
20
-200.658
11
256.309
21
-200.675
0
LINE
8
BLACK
6
CONTINUOUS
10
256.309
20
-200.675
11
256.25
21
-200.681
0
LINE
8
BLACK
6
CONTINUOUS
10
256.25
20
-200.681
11
256.191
21
-200.675
0
LINE
8
BLACK
6
CONTINUOUS
10
256.191
20
-200.675
11
253.525
21
-200.675
0
LINE
8
BLACK
6
CONTINUOUS
10
253.525
20
-200.675
11
253.525
21
-202.279
0
LINE
8
BLACK
6
CONTINUOUS
10
253.525
20
-202.279
11
269.35
21
-202.279
0
LINE
8
BLACK
6
CONTINUOUS
10
269.35
20
-202.279
11
269.35
21
-122
0
LINE
8
BLACK
6
CONTINUOUS
10
269.35
20
-122
11
247.534
21
-122
0
LINE
8
BLACK
6
CONTINUOUS
10
247.534
20
-122
11
247.475
21
-122.006
0
LINE
8
BLACK
6
CONTINUOUS
10
247.475
20
-122.006
11
247.416
21
-122
0
LINE
8
BLACK
6
CONTINUOUS
10
247.416
20
-122
11
238.622
21
-122
0
LINE
8
BLACK
6
CONTINUOUS
10
238.622
20
-122
11
238.622
21
-128.4
0
LINE
8
BLACK
6
CONTINUOUS
10
238.622
20
-128.4
11
255.541
21
-128.4
0
LINE
8
BLACK
6
CONTINUOUS
10
255.541
20
-128.4
11
255.6
21
-128.394
0
LINE
8
BLACK
6
CONTINUOUS
10
255.6
20
-128.394
11
255.659
21
-128.4
0
LINE
8
BLACK
6
CONTINUOUS
10
255.659
20
-128.4
11
255.659
21
-128.4
0
LINE
8
BLACK
6
CONTINUOUS
10
255.659
20
-128.4
11
255.835
21
-128.417
0
LINE
8
BLACK
6
CONTINUOUS
10
255.835
20
-128.417
11
256.061
21
-128.486
0
LINE
8
BLACK
6
CONTINUOUS
10
256.061
20
-128.486
11
256.27
21
-128.597
0
LINE
8
BLACK
6
CONTINUOUS
10
256.27
20
-128.597
11
256.453
21
-128.747
0
LINE
8
BLACK
6
CONTINUOUS
10
256.453
20
-128.747
11
256.49
21
-128.793
0
LINE
8
BLACK
6
CONTINUOUS
10
256.49
20
-128.793
11
261.332
21
-133.635
0
LINE
8
BLACK
6
CONTINUOUS
10
261.332
20
-133.635
11
261.378
21
-133.672
0
LINE
8
BLACK
6
CONTINUOUS
10
261.378
20
-133.672
11
261.528
21
-133.855
0
LINE
8
BLACK
6
CONTINUOUS
10
261.528
20
-133.855
11
261.639
21
-134.064
0
LINE
8
BLACK
6
CONTINUOUS
10
261.639
20
-134.064
11
261.708
21
-134.29
0
LINE
8
BLACK
6
CONTINUOUS
10
261.708
20
-134.29
11
261.724
21
-134.453
0
LINE
8
BLACK
6
CONTINUOUS
10
261.724
20
-134.453
11
261.731
21
-134.525
0
LINE
8
BLACK
6
CONTINUOUS
10
261.731
20
-134.525
11
261.725
21
-134.584
0
LINE
8
BLACK
6
CONTINUOUS
10
261.725
20
-134.584
11
261.725
21
-140.928
0
LINE
8
BLACK
6
CONTINUOUS
10
261.725
20
-140.928
11
261.731
21
-140.987
0
LINE
8
BLACK
6
CONTINUOUS
10
261.731
20
-140.987
11
261.725
21
-141.046
0
LINE
8
BLACK
6
CONTINUOUS
10
261.725
20
-141.046
11
261.725
21
-157.488
0
LINE
8
BLACK
6
CONTINUOUS
10
261.725
20
-157.488
11
261.731
21
-157.547
0
LINE
8
BLACK
6
CONTINUOUS
10
261.731
20
-157.547
11
261.725
21
-157.606
0
LINE
8
BLACK
6
CONTINUOUS
10
261.725
20
-157.606
11
261.725
21
-164.316
0
LINE
8
BLACK
6
CONTINUOUS
10
261.725
20
-164.316
11
261.731
21
-164.375
0
LINE
8
BLACK
6
CONTINUOUS
10
261.731
20
-164.375
11
261.725
21
-164.434
0
LINE
8
BLACK
6
CONTINUOUS
10
261.725
20
-164.434
11
261.725
21
-164.434
0
LINE
8
BLACK
6
CONTINUOUS
10
261.725
20
-164.434
11
261.708
21
-164.61
0
LINE
8
BLACK
6
CONTINUOUS
10
261.708
20
-164.61
11
261.639
21
-164.836
0
LINE
8
BLACK
6
CONTINUOUS
10
261.639
20
-164.836
11
261.528
21
-165.045
0
LINE
8
BLACK
6
CONTINUOUS
10
261.528
20
-165.045
11
261.378
21
-165.228
0
LINE
8
BLACK
6
CONTINUOUS
10
261.378
20
-165.228
11
261.332
21
-165.265
0
LINE
8
BLACK
6
CONTINUOUS
10
261.332
20
-165.265
11
247.15
21
-179.447
0
LINE
8
BLACK
6
CONTINUOUS
10
247.15
20
-179.447
11
247.15
21
-180.4
0
LINE
8
BLACK
6
CONTINUOUS
10
247.15
20
-180.4
11
256.191
21
-180.4
0
LINE
8
BLACK
6
CONTINUOUS
10
256.191
20
-180.4
11
256.25
21
-180.394
0
LINE
8
BLACK
6
CONTINUOUS
10
256.25
20
-180.394
11
256.309
21
-180.4
0
LINE
8
BLACK
6
CONTINUOUS
10
256.309
20
-180.4
11
256.485
21
-180.417
0
LINE
8
BLACK
6
CONTINUOUS
10
256.485
20
-180.417
11
256.711
21
-180.486
0
LINE
8
BLACK
6
CONTINUOUS
10
256.711
20
-180.486
11
256.92
21
-180.597
0
LINE
8
BLACK
6
CONTINUOUS
10
256.92
20
-180.597
11
257.103
21
-180.747
0
LINE
8
BLACK
6
CONTINUOUS
10
257.103
20
-180.747
11
257.253
21
-180.93
0
LINE
8
BLACK
6
CONTINUOUS
10
257.253
20
-180.93
11
257.364
21
-181.139
0
LINE
8
BLACK
6
CONTINUOUS
10
257.364
20
-181.139
11
257.433
21
-181.365
0
LINE
8
BLACK
6
CONTINUOUS
10
257.433
20
-181.365
11
257.456
21
-181.6
0
LINE
8
BLACK
6
CONTINUOUS
10
257.456
20
-181.6
11
257.45
21
-181.659
0
LINE
8
BLACK
6
CONTINUOUS
10
257.45
20
-181.659
11
257.45
21
-199.416
0
LINE
8
BLACK
6
CONTINUOUS
10
257.45
20
-199.416
11
257.456
21
-199.475
0
LINE
8
BLACK
6
CONTINUOUS
10
247.156
20
-195.2
11
247.15
21
-195.259
0
LINE
8
BLACK
6
CONTINUOUS
10
247.15
20
-195.259
11
247.15
21
-198.275
0
LINE
8
BLACK
6
CONTINUOUS
10
247.15
20
-198.275
11
255.05
21
-198.275
0
LINE
8
BLACK
6
CONTINUOUS
10
255.05
20
-198.275
11
255.05
21
-194.934
0
LINE
8
BLACK
6
CONTINUOUS
10
255.05
20
-194.934
11
255.05
21
-194.934
0
LINE
8
BLACK
6
CONTINUOUS
10
255.05
20
-194.934
11
255.05
21
-182.8
0
LINE
8
BLACK
6
CONTINUOUS
10
255.05
20
-182.8
11
247.15
21
-182.8
0
LINE
8
BLACK
6
CONTINUOUS
10
247.15
20
-182.8
11
247.15
21
-195.141
0
LINE
8
BLACK
6
CONTINUOUS
10
247.15
20
-195.141
11
247.156
21
-195.2
0
LINE
8
BLACK
6
CONTINUOUS
10
237.075
20
-182.8
11
237.075
21
-194
0
LINE
8
BLACK
6
CONTINUOUS
10
237.075
20
-194
11
244.75
21
-194
0
LINE
8
BLACK
6
CONTINUOUS
10
244.75
20
-194
11
244.75
21
-182.8
0
LINE
8
BLACK
6
CONTINUOUS
10
244.75
20
-182.8
11
237.075
21
-182.8
0
LINE
8
BLACK
6
CONTINUOUS
10
234.675
20
-182.8
11
222.725
21
-182.8
0
LINE
8
BLACK
6
CONTINUOUS
10
222.725
20
-182.8
11
222.725
21
-194
0
LINE
8
BLACK
6
CONTINUOUS
10
222.725
20
-194
11
234.675
21
-194
0
LINE
8
BLACK
6
CONTINUOUS
10
234.675
20
-194
11
234.675
21
-182.8
0
LINE
8
BLACK
6
CONTINUOUS
10
192.784
20
-182.8
11
192.725
21
-182.806
0
LINE
8
BLACK
6
CONTINUOUS
10
192.725
20
-182.806
11
192.666
21
-182.8
0
LINE
8
BLACK
6
CONTINUOUS
10
192.666
20
-182.8
11
179.825
21
-182.8
0
LINE
8
BLACK
6
CONTINUOUS
10
179.825
20
-182.8
11
179.825
21
-194
0
LINE
8
BLACK
6
CONTINUOUS
10
179.825
20
-194
11
193
21
-194
0
LINE
8
BLACK
6
CONTINUOUS
10
193
20
-194
11
193
21
-182.8
0
LINE
8
BLACK
6
CONTINUOUS
10
193
20
-182.8
11
192.784
21
-182.8
0
LINE
8
BLACK
6
CONTINUOUS
10
195.4
20
-182.8
11
195.4
21
-194
0
LINE
8
BLACK
6
CONTINUOUS
10
195.4
20
-194
11
206.05
21
-194
0
LINE
8
BLACK
6
CONTINUOUS
10
206.05
20
-194
11
206.05
21
-182.8
0
LINE
8
BLACK
6
CONTINUOUS
10
206.05
20
-182.8
11
195.4
21
-182.8
0
LINE
8
BLACK
6
CONTINUOUS
10
208.45
20
-182.8
11
208.45
21
-194
0
LINE
8
BLACK
6
CONTINUOUS
10
208.45
20
-194
11
220.325
21
-194
0
LINE
8
BLACK
6
CONTINUOUS
10
220.325
20
-194
11
220.325
21
-182.8
0
LINE
8
BLACK
6
CONTINUOUS
10
220.325
20
-182.8
11
208.45
21
-182.8
0
LINE
8
BLACK
6
CONTINUOUS
10
148.035
20
-182.8
11
147.976
21
-182.806
0
LINE
8
BLACK
6
CONTINUOUS
10
147.976
20
-182.806
11
147.917
21
-182.8
0
LINE
8
BLACK
6
CONTINUOUS
10
147.917
20
-182.8
11
139.45
21
-182.8
0
LINE
8
BLACK
6
CONTINUOUS
10
139.45
20
-182.8
11
139.45
21
-192.7
0
LINE
8
BLACK
6
CONTINUOUS
10
139.45
20
-192.7
11
149.441
21
-192.7
0
LINE
8
BLACK
6
CONTINUOUS
10
149.441
20
-192.7
11
149.5
21
-192.694
0
LINE
8
BLACK
6
CONTINUOUS
10
149.5
20
-192.694
11
149.559
21
-192.7
0
LINE
8
BLACK
6
CONTINUOUS
10
149.559
20
-192.7
11
149.559
21
-192.7
0
LINE
8
BLACK
6
CONTINUOUS
10
149.559
20
-192.7
11
149.735
21
-192.717
0
LINE
8
BLACK
6
CONTINUOUS
10
149.735
20
-192.717
11
149.961
21
-192.786
0
LINE
8
BLACK
6
CONTINUOUS
10
149.961
20
-192.786
11
150.17
21
-192.897
0
LINE
8
BLACK
6
CONTINUOUS
10
150.17
20
-192.897
11
150.353
21
-193.047
0
LINE
8
BLACK
6
CONTINUOUS
10
150.353
20
-193.047
11
150.39
21
-193.093
0
LINE
8
BLACK
6
CONTINUOUS
10
150.39
20
-193.093
11
151.297
21
-194
0
LINE
8
BLACK
6
CONTINUOUS
10
151.297
20
-194
11
162.325
21
-194
0
LINE
8
BLACK
6
CONTINUOUS
10
162.325
20
-194
11
162.325
21
-182.8
0
LINE
8
BLACK
6
CONTINUOUS
10
162.325
20
-182.8
11
148.035
21
-182.8
0
LINE
8
BLACK
6
CONTINUOUS
10
168.472
20
-177.975
11
164.725
21
-181.722
0
LINE
8
BLACK
6
CONTINUOUS
10
164.725
20
-181.722
11
164.725
21
-194
0
LINE
8
BLACK
6
CONTINUOUS
10
164.725
20
-194
11
170.741
21
-194
0
LINE
8
BLACK
6
CONTINUOUS
10
170.741
20
-194
11
170.8
21
-193.994
0
LINE
8
BLACK
6
CONTINUOUS
10
170.8
20
-193.994
11
170.859
21
-194
0
LINE
8
BLACK
6
CONTINUOUS
10
170.859
20
-194
11
177.425
21
-194
0
LINE
8
BLACK
6
CONTINUOUS
10
177.425
20
-194
11
177.425
21
-181.659
0
LINE
8
BLACK
6
CONTINUOUS
10
177.425
20
-181.659
11
177.419
21
-181.6
0
LINE
8
BLACK
6
CONTINUOUS
10
177.419
20
-181.6
11
177.425
21
-181.541
0
LINE
8
BLACK
6
CONTINUOUS
10
177.425
20
-181.541
11
177.425
21
-179.422
0
LINE
8
BLACK
6
CONTINUOUS
10
177.425
20
-179.422
11
175.978
21
-177.975
0
LINE
8
BLACK
6
CONTINUOUS
10
175.978
20
-177.975
11
168.472
21
-177.975
0
LINE
8
BLACK
6
CONTINUOUS
10
167.95
20
-136.506
11
167.95
21
-145.931
0
LINE
8
BLACK
6
CONTINUOUS
10
167.95
20
-145.931
11
167.956
21
-145.99
0
LINE
8
BLACK
6
CONTINUOUS
10
167.956
20
-145.99
11
167.933
21
-146.225
0
LINE
8
BLACK
6
CONTINUOUS
10
167.933
20
-146.225
11
167.864
21
-146.451
0
LINE
8
BLACK
6
CONTINUOUS
10
167.864
20
-146.451
11
167.753
21
-146.66
0
LINE
8
BLACK
6
CONTINUOUS
10
167.753
20
-146.66
11
167.603
21
-146.843
0
LINE
8
BLACK
6
CONTINUOUS
10
167.603
20
-146.843
11
167.42
21
-146.993
0
LINE
8
BLACK
6
CONTINUOUS
10
167.42
20
-146.993
11
167.211
21
-147.104
0
LINE
8
BLACK
6
CONTINUOUS
10
167.211
20
-147.104
11
166.985
21
-147.173
0
LINE
8
BLACK
6
CONTINUOUS
10
166.985
20
-147.173
11
166.809
21
-147.19
0
LINE
8
BLACK
6
CONTINUOUS
10
166.809
20
-147.19
11
166.75
21
-147.196
0
LINE
8
BLACK
6
CONTINUOUS
10
166.75
20
-147.196
11
166.691
21
-147.19
0
LINE
8
BLACK
6
CONTINUOUS
10
166.691
20
-147.19
11
156.168
21
-147.19
0
LINE
8
BLACK
6
CONTINUOUS
10
156.168
20
-147.19
11
156.109
21
-147.196
0
LINE
8
BLACK
6
CONTINUOUS
10
156.109
20
-147.196
11
156.05
21
-147.19
0
LINE
8
BLACK
6
CONTINUOUS
10
156.05
20
-147.19
11
149.176
21
-147.19
0
LINE
8
BLACK
6
CONTINUOUS
10
149.176
20
-147.19
11
149.176
21
-180.4
0
LINE
8
BLACK
6
CONTINUOUS
10
149.176
20
-180.4
11
162.65
21
-180.4
0
LINE
8
BLACK
6
CONTINUOUS
10
162.65
20
-180.4
11
162.672
21
-180.372
0
LINE
8
BLACK
6
CONTINUOUS
10
162.672
20
-180.372
11
162.718
21
-180.335
0
LINE
8
BLACK
6
CONTINUOUS
10
162.718
20
-180.335
11
167.085
21
-175.968
0
LINE
8
BLACK
6
CONTINUOUS
10
167.085
20
-175.968
11
167.122
21
-175.922
0
LINE
8
BLACK
6
CONTINUOUS
10
167.122
20
-175.922
11
167.305
21
-175.772
0
LINE
8
BLACK
6
CONTINUOUS
10
167.305
20
-175.772
11
167.514
21
-175.661
0
LINE
8
BLACK
6
CONTINUOUS
10
167.514
20
-175.661
11
167.74
21
-175.592
0
LINE
8
BLACK
6
CONTINUOUS
10
167.74
20
-175.592
11
167.916
21
-175.575
0
LINE
8
BLACK
6
CONTINUOUS
10
167.916
20
-175.575
11
167.916
21
-175.575
0
LINE
8
BLACK
6
CONTINUOUS
10
167.916
20
-175.575
11
167.975
21
-175.569
0
LINE
8
BLACK
6
CONTINUOUS
10
167.975
20
-175.569
11
168.034
21
-175.575
0
LINE
8
BLACK
6
CONTINUOUS
10
168.034
20
-175.575
11
176.416
21
-175.575
0
LINE
8
BLACK
6
CONTINUOUS
10
176.416
20
-175.575
11
176.475
21
-175.569
0
LINE
8
BLACK
6
CONTINUOUS
10
176.475
20
-175.569
11
176.534
21
-175.575
0
LINE
8
BLACK
6
CONTINUOUS
10
176.534
20
-175.575
11
176.534
21
-175.575
0
LINE
8
BLACK
6
CONTINUOUS
10
176.534
20
-175.575
11
176.71
21
-175.592
0
LINE
8
BLACK
6
CONTINUOUS
10
176.71
20
-175.592
11
176.936
21
-175.661
0
LINE
8
BLACK
6
CONTINUOUS
10
176.936
20
-175.661
11
177.145
21
-175.772
0
LINE
8
BLACK
6
CONTINUOUS
10
177.145
20
-175.772
11
177.328
21
-175.922
0
LINE
8
BLACK
6
CONTINUOUS
10
177.328
20
-175.922
11
177.365
21
-175.968
0
LINE
8
BLACK
6
CONTINUOUS
10
177.365
20
-175.968
11
179.432
21
-178.035
0
LINE
8
BLACK
6
CONTINUOUS
10
179.432
20
-178.035
11
179.478
21
-178.072
0
LINE
8
BLACK
6
CONTINUOUS
10
179.478
20
-178.072
11
179.573
21
-178.189
0
LINE
8
BLACK
6
CONTINUOUS
10
179.573
20
-178.189
11
179.628
21
-178.255
0
LINE
8
BLACK
6
CONTINUOUS
10
179.628
20
-178.255
11
179.641
21
-178.28
0
LINE
8
BLACK
6
CONTINUOUS
10
179.641
20
-178.28
11
179.739
21
-178.464
0
LINE
8
BLACK
6
CONTINUOUS
10
179.739
20
-178.464
11
179.808
21
-178.69
0
LINE
8
BLACK
6
CONTINUOUS
10
179.808
20
-178.69
11
179.825
21
-178.866
0
LINE
8
BLACK
6
CONTINUOUS
10
179.825
20
-178.866
11
179.831
21
-178.925
0
LINE
8
BLACK
6
CONTINUOUS
10
179.831
20
-178.925
11
179.825
21
-178.984
0
LINE
8
BLACK
6
CONTINUOUS
10
179.825
20
-178.984
11
179.825
21
-180.4
0
LINE
8
BLACK
6
CONTINUOUS
10
179.825
20
-180.4
11
191.525
21
-180.4
0
LINE
8
BLACK
6
CONTINUOUS
10
191.525
20
-180.4
11
191.525
21
-139.6
0
LINE
8
BLACK
6
CONTINUOUS
10
191.525
20
-139.6
11
182.559
21
-139.6
0
LINE
8
BLACK
6
CONTINUOUS
10
182.559
20
-139.6
11
182.5
21
-139.606
0
LINE
8
BLACK
6
CONTINUOUS
10
182.5
20
-139.606
11
182.441
21
-139.6
0
LINE
8
BLACK
6
CONTINUOUS
10
182.441
20
-139.6
11
182.432
21
-139.6
0
LINE
8
BLACK
6
CONTINUOUS
10
182.432
20
-139.6
11
182.256
21
-139.583
0
LINE
8
BLACK
6
CONTINUOUS
10
182.256
20
-139.583
11
182.03
21
-139.514
0
LINE
8
BLACK
6
CONTINUOUS
10
182.03
20
-139.514
11
181.821
21
-139.403
0
LINE
8
BLACK
6
CONTINUOUS
10
181.821
20
-139.403
11
181.639
21
-139.253
0
LINE
8
BLACK
6
CONTINUOUS
10
181.639
20
-139.253
11
181.489
21
-139.07
0
LINE
8
BLACK
6
CONTINUOUS
10
181.489
20
-139.07
11
181.377
21
-138.861
0
LINE
8
BLACK
6
CONTINUOUS
10
181.377
20
-138.861
11
181.309
21
-138.635
0
LINE
8
BLACK
6
CONTINUOUS
10
181.309
20
-138.635
11
181.286
21
-138.4
0
LINE
8
BLACK
6
CONTINUOUS
10
181.286
20
-138.4
11
181.3
21
-138.253
0
LINE
8
BLACK
6
CONTINUOUS
10
181.3
20
-138.253
11
181.3
21
-136.506
0
LINE
8
BLACK
6
CONTINUOUS
10
181.3
20
-136.506
11
167.95
21
-136.506
0
LINE
8
BLACK
6
CONTINUOUS
10
193.925
20
-139.6
11
193.925
21
-180.4
0
LINE
8
BLACK
6
CONTINUOUS
10
193.925
20
-180.4
11
194.141
21
-180.4
0
LINE
8
BLACK
6
CONTINUOUS
10
194.141
20
-180.4
11
194.2
21
-180.394
0
LINE
8
BLACK
6
CONTINUOUS
10
194.2
20
-180.394
11
194.259
21
-180.4
0
LINE
8
BLACK
6
CONTINUOUS
10
194.259
20
-180.4
11
207.191
21
-180.4
0
LINE
8
BLACK
6
CONTINUOUS
10
207.191
20
-180.4
11
207.25
21
-180.394
0
LINE
8
BLACK
6
CONTINUOUS
10
207.25
20
-180.394
11
207.309
21
-180.4
0
LINE
8
BLACK
6
CONTINUOUS
10
207.309
20
-180.4
11
221.466
21
-180.4
0
LINE
8
BLACK
6
CONTINUOUS
10
221.466
20
-180.4
11
221.525
21
-180.394
0
LINE
8
BLACK
6
CONTINUOUS
10
221.525
20
-180.394
11
221.584
21
-180.4
0
LINE
8
BLACK
6
CONTINUOUS
10
221.584
20
-180.4
11
234.675
21
-180.4
0
LINE
8
BLACK
6
CONTINUOUS
10
234.675
20
-180.4
11
234.675
21
-179.459
0
LINE
8
BLACK
6
CONTINUOUS
10
234.675
20
-179.459
11
234.669
21
-179.4
0
LINE
8
BLACK
6
CONTINUOUS
10
234.669
20
-179.4
11
234.692
21
-179.165
0
LINE
8
BLACK
6
CONTINUOUS
10
234.692
20
-179.165
11
234.761
21
-178.939
0
LINE
8
BLACK
6
CONTINUOUS
10
234.761
20
-178.939
11
234.872
21
-178.73
0
LINE
8
BLACK
6
CONTINUOUS
10
234.872
20
-178.73
11
234.985
21
-178.593
0
LINE
8
BLACK
6
CONTINUOUS
10
234.985
20
-178.593
11
234.985
21
-178.593
0
LINE
8
BLACK
6
CONTINUOUS
10
234.985
20
-178.593
11
235.022
21
-178.547
0
LINE
8
BLACK
6
CONTINUOUS
10
235.022
20
-178.547
11
235.068
21
-178.51
0
LINE
8
BLACK
6
CONTINUOUS
10
235.068
20
-178.51
11
243.078
21
-170.5
0
LINE
8
BLACK
6
CONTINUOUS
10
243.078
20
-170.5
11
215.134
21
-170.5
0
LINE
8
BLACK
6
CONTINUOUS
10
215.134
20
-170.5
11
215.075
21
-170.506
0
LINE
8
BLACK
6
CONTINUOUS
10
215.075
20
-170.506
11
215.016
21
-170.5
0
LINE
8
BLACK
6
CONTINUOUS
10
215.016
20
-170.5
11
214.84
21
-170.483
0
LINE
8
BLACK
6
CONTINUOUS
10
214.84
20
-170.483
11
214.614
21
-170.414
0
LINE
8
BLACK
6
CONTINUOUS
10
214.614
20
-170.414
11
214.405
21
-170.303
0
LINE
8
BLACK
6
CONTINUOUS
10
214.405
20
-170.303
11
214.222
21
-170.153
0
LINE
8
BLACK
6
CONTINUOUS
10
214.222
20
-170.153
11
214.072
21
-169.97
0
LINE
8
BLACK
6
CONTINUOUS
10
214.072
20
-169.97
11
213.961
21
-169.761
0
LINE
8
BLACK
6
CONTINUOUS
10
213.961
20
-169.761
11
213.892
21
-169.535
0
LINE
8
BLACK
6
CONTINUOUS
10
213.892
20
-169.535
11
213.869
21
-169.3
0
LINE
8
BLACK
6
CONTINUOUS
10
213.869
20
-169.3
11
213.875
21
-169.241
0
LINE
8
BLACK
6
CONTINUOUS
10
213.875
20
-169.241
11
213.875
21
-139.6
0
LINE
8
BLACK
6
CONTINUOUS
10
213.875
20
-139.6
11
193.925
21
-139.6
0
LINE
8
BLACK
6
CONTINUOUS
10
247.175
20
-158.747
11
247.175
21
-169.241
0
LINE
8
BLACK
6
CONTINUOUS
10
247.175
20
-169.241
11
247.181
21
-169.3
0
LINE
8
BLACK
6
CONTINUOUS
10
247.181
20
-169.3
11
247.158
21
-169.535
0
LINE
8
BLACK
6
CONTINUOUS
10
247.158
20
-169.535
11
247.089
21
-169.761
0
LINE
8
BLACK
6
CONTINUOUS
10
247.089
20
-169.761
11
247.089
21
-169.761
0
LINE
8
BLACK
6
CONTINUOUS
10
247.089
20
-169.761
11
246.978
21
-169.97
0
LINE
8
BLACK
6
CONTINUOUS
10
246.978
20
-169.97
11
246.865
21
-170.107
0
LINE
8
BLACK
6
CONTINUOUS
10
246.865
20
-170.107
11
246.828
21
-170.153
0
LINE
8
BLACK
6
CONTINUOUS
10
246.828
20
-170.153
11
246.782
21
-170.19
0
LINE
8
BLACK
6
CONTINUOUS
10
246.782
20
-170.19
11
237.075
21
-179.897
0
LINE
8
BLACK
6
CONTINUOUS
10
237.075
20
-179.897
11
237.075
21
-180.4
0
LINE
8
BLACK
6
CONTINUOUS
10
237.075
20
-180.4
11
244.75
21
-180.4
0
LINE
8
BLACK
6
CONTINUOUS
10
244.75
20
-180.4
11
244.75
21
-179.009
0
LINE
8
BLACK
6
CONTINUOUS
10
244.75
20
-179.009
11
244.744
21
-178.95
0
LINE
8
BLACK
6
CONTINUOUS
10
244.744
20
-178.95
11
244.767
21
-178.715
0
LINE
8
BLACK
6
CONTINUOUS
10
244.767
20
-178.715
11
244.836
21
-178.489
0
LINE
8
BLACK
6
CONTINUOUS
10
244.836
20
-178.489
11
244.947
21
-178.28
0
LINE
8
BLACK
6
CONTINUOUS
10
244.947
20
-178.28
11
245.06
21
-178.143
0
LINE
8
BLACK
6
CONTINUOUS
10
245.06
20
-178.143
11
245.06
21
-178.143
0
LINE
8
BLACK
6
CONTINUOUS
10
245.06
20
-178.143
11
245.097
21
-178.097
0
LINE
8
BLACK
6
CONTINUOUS
10
245.097
20
-178.097
11
245.143
21
-178.06
0
LINE
8
BLACK
6
CONTINUOUS
10
245.143
20
-178.06
11
259.325
21
-163.878
0
LINE
8
BLACK
6
CONTINUOUS
10
259.325
20
-163.878
11
259.325
21
-158.747
0
LINE
8
BLACK
6
CONTINUOUS
10
259.325
20
-158.747
11
247.175
21
-158.747
0
LINE
8
BLACK
6
CONTINUOUS
10
139.4
20
-147.19
11
139.4
21
-180.4
0
LINE
8
BLACK
6
CONTINUOUS
10
139.4
20
-180.4
11
146.776
21
-180.4
0
LINE
8
BLACK
6
CONTINUOUS
10
146.776
20
-180.4
11
146.776
21
-147.19
0
LINE
8
BLACK
6
CONTINUOUS
10
146.776
20
-147.19
11
139.4
21
-147.19
0
LINE
8
BLACK
6
CONTINUOUS
10
217.959
20
-139.6
11
217.9
21
-139.606
0
LINE
8
BLACK
6
CONTINUOUS
10
217.9
20
-139.606
11
217.841
21
-139.6
0
LINE
8
BLACK
6
CONTINUOUS
10
217.841
20
-139.6
11
216.275
21
-139.6
0
LINE
8
BLACK
6
CONTINUOUS
10
216.275
20
-139.6
11
216.275
21
-168.1
0
LINE
8
BLACK
6
CONTINUOUS
10
216.275
20
-168.1
11
244.775
21
-168.1
0
LINE
8
BLACK
6
CONTINUOUS
10
244.775
20
-168.1
11
244.775
21
-157.606
0
LINE
8
BLACK
6
CONTINUOUS
10
244.775
20
-157.606
11
244.769
21
-157.547
0
LINE
8
BLACK
6
CONTINUOUS
10
244.769
20
-157.547
11
244.775
21
-157.488
0
LINE
8
BLACK
6
CONTINUOUS
10
244.775
20
-157.488
11
244.775
21
-141.046
0
LINE
8
BLACK
6
CONTINUOUS
10
244.775
20
-141.046
11
244.769
21
-140.987
0
LINE
8
BLACK
6
CONTINUOUS
10
244.769
20
-140.987
11
244.775
21
-140.928
0
LINE
8
BLACK
6
CONTINUOUS
10
244.775
20
-140.928
11
244.775
21
-139.6
0
LINE
8
BLACK
6
CONTINUOUS
10
244.775
20
-139.6
11
237.481
21
-139.6
0
LINE
8
BLACK
6
CONTINUOUS
10
237.481
20
-139.6
11
237.422
21
-139.606
0
LINE
8
BLACK
6
CONTINUOUS
10
237.422
20
-139.606
11
237.364
21
-139.6
0
LINE
8
BLACK
6
CONTINUOUS
10
237.364
20
-139.6
11
237.364
21
-139.6
0
LINE
8
BLACK
6
CONTINUOUS
10
237.364
20
-139.6
11
237.363
21
-139.6
0
LINE
8
BLACK
6
CONTINUOUS
10
237.363
20
-139.6
11
217.959
21
-139.6
0
LINE
8
BLACK
6
CONTINUOUS
10
247.175
20
-142.187
11
247.175
21
-156.347
0
LINE
8
BLACK
6
CONTINUOUS
10
247.175
20
-156.347
11
259.325
21
-156.347
0
LINE
8
BLACK
6
CONTINUOUS
10
259.325
20
-156.347
11
259.325
21
-142.187
0
LINE
8
BLACK
6
CONTINUOUS
10
259.325
20
-142.187
11
247.175
21
-142.187
0
LINE
8
BLACK
6
CONTINUOUS
10
147.914
20
-144.79
11
147.976
21
-144.784
0
LINE
8
BLACK
6
CONTINUOUS
10
147.976
20
-144.784
11
148.038
21
-144.79
0
LINE
8
BLACK
6
CONTINUOUS
10
148.038
20
-144.79
11
154.909
21
-144.79
0
LINE
8
BLACK
6
CONTINUOUS
10
154.909
20
-144.79
11
154.909
21
-132.15
0
LINE
8
BLACK
6
CONTINUOUS
10
154.909
20
-132.15
11
148.14
21
-132.15
0
LINE
8
BLACK
6
CONTINUOUS
10
148.14
20
-132.15
11
147.976
21
-132.166
0
LINE
8
BLACK
6
CONTINUOUS
10
147.976
20
-132.166
11
147.812
21
-132.15
0
LINE
8
BLACK
6
CONTINUOUS
10
147.812
20
-132.15
11
139.4
21
-132.15
0
LINE
8
BLACK
6
CONTINUOUS
10
139.4
20
-132.15
11
139.4
21
-138.215
0
LINE
8
BLACK
6
CONTINUOUS
10
139.4
20
-138.215
11
139.4
21
-144.79
0
LINE
8
BLACK
6
CONTINUOUS
10
139.4
20
-144.79
11
147.914
21
-144.79
0
LINE
8
BLACK
6
CONTINUOUS
10
157.309
20
-132.15
11
157.309
21
-144.79
0
LINE
8
BLACK
6
CONTINUOUS
10
157.309
20
-144.79
11
165.55
21
-144.79
0
LINE
8
BLACK
6
CONTINUOUS
10
165.55
20
-144.79
11
165.55
21
-135.365
0
LINE
8
BLACK
6
CONTINUOUS
10
165.55
20
-135.365
11
165.544
21
-135.306
0
LINE
8
BLACK
6
CONTINUOUS
10
165.544
20
-135.306
11
165.55
21
-135.247
0
LINE
8
BLACK
6
CONTINUOUS
10
165.55
20
-135.247
11
165.55
21
-132.15
0
LINE
8
BLACK
6
CONTINUOUS
10
165.55
20
-132.15
11
157.309
21
-132.15
0
LINE
8
BLACK
6
CONTINUOUS
10
238.622
20
-130.8
11
238.622
21
-137.2
0
LINE
8
BLACK
6
CONTINUOUS
10
238.622
20
-137.2
11
245.916
21
-137.2
0
LINE
8
BLACK
6
CONTINUOUS
10
245.916
20
-137.2
11
245.975
21
-137.194
0
LINE
8
BLACK
6
CONTINUOUS
10
245.975
20
-137.194
11
246.034
21
-137.2
0
LINE
8
BLACK
6
CONTINUOUS
10
246.034
20
-137.2
11
246.21
21
-137.217
0
LINE
8
BLACK
6
CONTINUOUS
10
246.21
20
-137.217
11
246.436
21
-137.286
0
LINE
8
BLACK
6
CONTINUOUS
10
246.436
20
-137.286
11
246.645
21
-137.397
0
LINE
8
BLACK
6
CONTINUOUS
10
246.645
20
-137.397
11
246.828
21
-137.547
0
LINE
8
BLACK
6
CONTINUOUS
10
246.828
20
-137.547
11
246.978
21
-137.73
0
LINE
8
BLACK
6
CONTINUOUS
10
246.978
20
-137.73
11
247.089
21
-137.939
0
LINE
8
BLACK
6
CONTINUOUS
10
247.089
20
-137.939
11
247.158
21
-138.165
0
LINE
8
BLACK
6
CONTINUOUS
10
247.158
20
-138.165
11
247.181
21
-138.4
0
LINE
8
BLACK
6
CONTINUOUS
10
247.181
20
-138.4
11
247.175
21
-138.459
0
LINE
8
BLACK
6
CONTINUOUS
10
247.175
20
-138.459
11
247.175
21
-139.787
0
LINE
8
BLACK
6
CONTINUOUS
10
247.175
20
-139.787
11
259.325
21
-139.787
0
LINE
8
BLACK
6
CONTINUOUS
10
259.325
20
-139.787
11
259.325
21
-135.022
0
LINE
8
BLACK
6
CONTINUOUS
10
259.325
20
-135.022
11
255.103
21
-130.8
0
LINE
8
BLACK
6
CONTINUOUS
10
255.103
20
-130.8
11
238.622
21
-130.8
0
LINE
8
BLACK
6
CONTINUOUS
10
219.1
20
-130.8
11
219.1
21
-137.2
0
LINE
8
BLACK
6
CONTINUOUS
10
219.1
20
-137.2
11
236.222
21
-137.2
0
LINE
8
BLACK
6
CONTINUOUS
10
236.222
20
-137.2
11
236.222
21
-130.8
0
LINE
8
BLACK
6
CONTINUOUS
10
236.222
20
-130.8
11
219.1
21
-130.8
0
LINE
8
BLACK
6
CONTINUOUS
10
196.075
20
-104.406
11
196.016
21
-104.4
0
LINE
8
BLACK
6
CONTINUOUS
10
196.016
20
-104.4
11
183.7
21
-104.4
0
LINE
8
BLACK
6
CONTINUOUS
10
183.7
20
-104.4
11
183.7
21
-137.2
0
LINE
8
BLACK
6
CONTINUOUS
10
183.7
20
-137.2
11
192.666
21
-137.2
0
LINE
8
BLACK
6
CONTINUOUS
10
192.666
20
-137.2
11
192.725
21
-137.194
0
LINE
8
BLACK
6
CONTINUOUS
10
192.725
20
-137.194
11
192.784
21
-137.2
0
LINE
8
BLACK
6
CONTINUOUS
10
192.784
20
-137.2
11
215.016
21
-137.2
0
LINE
8
BLACK
6
CONTINUOUS
10
215.016
20
-137.2
11
215.075
21
-137.194
0
LINE
8
BLACK
6
CONTINUOUS
10
215.075
20
-137.194
11
215.134
21
-137.2
0
LINE
8
BLACK
6
CONTINUOUS
10
215.134
20
-137.2
11
216.7
21
-137.2
0
LINE
8
BLACK
6
CONTINUOUS
10
216.7
20
-137.2
11
216.7
21
-129.659
0
LINE
8
BLACK
6
CONTINUOUS
10
216.7
20
-129.659
11
216.694
21
-129.6
0
LINE
8
BLACK
6
CONTINUOUS
10
216.694
20
-129.6
11
216.7
21
-129.541
0
LINE
8
BLACK
6
CONTINUOUS
10
216.7
20
-129.541
11
216.7
21
-120.859
0
LINE
8
BLACK
6
CONTINUOUS
10
216.7
20
-120.859
11
216.694
21
-120.8
0
LINE
8
BLACK
6
CONTINUOUS
10
216.694
20
-120.8
11
216.7
21
-120.741
0
LINE
8
BLACK
6
CONTINUOUS
10
216.7
20
-120.741
11
216.7
21
-112.059
0
LINE
8
BLACK
6
CONTINUOUS
10
216.7
20
-112.059
11
216.694
21
-112
0
LINE
8
BLACK
6
CONTINUOUS
10
216.694
20
-112
11
216.7
21
-111.941
0
LINE
8
BLACK
6
CONTINUOUS
10
216.7
20
-111.941
11
216.7
21
-104.4
0
LINE
8
BLACK
6
CONTINUOUS
10
216.7
20
-104.4
11
213.609
21
-104.4
0
LINE
8
BLACK
6
CONTINUOUS
10
213.609
20
-104.4
11
213.55
21
-104.406
0
LINE
8
BLACK
6
CONTINUOUS
10
213.55
20
-104.406
11
213.491
21
-104.4
0
LINE
8
BLACK
6
CONTINUOUS
10
213.491
20
-104.4
11
196.134
21
-104.4
0
LINE
8
BLACK
6
CONTINUOUS
10
196.134
20
-104.4
11
196.075
21
-104.406
0
LINE
8
BLACK
6
CONTINUOUS
10
160.675
20
-94.6962
11
160.675
21
-96.1161
0
LINE
8
BLACK
6
CONTINUOUS
10
160.675
20
-96.1161
11
160.681
21
-96.175
0
LINE
8
BLACK
6
CONTINUOUS
10
160.681
20
-96.175
11
160.675
21
-96.2339
0
LINE
8
BLACK
6
CONTINUOUS
10
160.675
20
-96.2339
11
160.675
21
-96.2393
0
LINE
8
BLACK
6
CONTINUOUS
10
160.675
20
-96.2393
11
160.658
21
-96.4156
0
LINE
8
BLACK
6
CONTINUOUS
10
160.658
20
-96.4156
11
160.589
21
-96.6418
0
LINE
8
BLACK
6
CONTINUOUS
10
160.589
20
-96.6418
11
160.478
21
-96.8503
0
LINE
8
BLACK
6
CONTINUOUS
10
160.478
20
-96.8503
11
160.328
21
-97.033
0
LINE
8
BLACK
6
CONTINUOUS
10
160.328
20
-97.033
11
160.145
21
-97.183
0
LINE
8
BLACK
6
CONTINUOUS
10
160.145
20
-97.183
11
159.936
21
-97.2944
0
LINE
8
BLACK
6
CONTINUOUS
10
159.936
20
-97.2944
11
159.71
21
-97.363
0
LINE
8
BLACK
6
CONTINUOUS
10
159.71
20
-97.363
11
159.475
21
-97.3862
0
LINE
8
BLACK
6
CONTINUOUS
10
159.475
20
-97.3862
11
159.361
21
-97.375
0
LINE
8
BLACK
6
CONTINUOUS
10
159.361
20
-97.375
11
149.764
21
-97.375
0
LINE
8
BLACK
6
CONTINUOUS
10
149.764
20
-97.375
11
149.65
21
-97.3862
0
LINE
8
BLACK
6
CONTINUOUS
10
149.65
20
-97.3862
11
149.536
21
-97.375
0
LINE
8
BLACK
6
CONTINUOUS
10
149.536
20
-97.375
11
149.176
21
-97.375
0
LINE
8
BLACK
6
CONTINUOUS
10
149.176
20
-97.375
11
149.176
21
-129.75
0
LINE
8
BLACK
6
CONTINUOUS
10
149.176
20
-129.75
11
166.691
21
-129.75
0
LINE
8
BLACK
6
CONTINUOUS
10
166.691
20
-129.75
11
166.75
21
-129.744
0
LINE
8
BLACK
6
CONTINUOUS
10
166.75
20
-129.744
11
166.809
21
-129.75
0
LINE
8
BLACK
6
CONTINUOUS
10
166.809
20
-129.75
11
166.985
21
-129.767
0
LINE
8
BLACK
6
CONTINUOUS
10
166.985
20
-129.767
11
167.211
21
-129.836
0
LINE
8
BLACK
6
CONTINUOUS
10
167.211
20
-129.836
11
167.42
21
-129.947
0
LINE
8
BLACK
6
CONTINUOUS
10
167.42
20
-129.947
11
167.603
21
-130.097
0
LINE
8
BLACK
6
CONTINUOUS
10
167.603
20
-130.097
11
167.753
21
-130.28
0
LINE
8
BLACK
6
CONTINUOUS
10
167.753
20
-130.28
11
167.864
21
-130.489
0
LINE
8
BLACK
6
CONTINUOUS
10
167.864
20
-130.489
11
167.933
21
-130.715
0
LINE
8
BLACK
6
CONTINUOUS
10
167.933
20
-130.715
11
167.956
21
-130.95
0
LINE
8
BLACK
6
CONTINUOUS
10
167.956
20
-130.95
11
167.95
21
-131.009
0
LINE
8
BLACK
6
CONTINUOUS
10
167.95
20
-131.009
11
167.95
21
-134.106
0
LINE
8
BLACK
6
CONTINUOUS
10
167.95
20
-134.106
11
181.3
21
-134.106
0
LINE
8
BLACK
6
CONTINUOUS
10
181.3
20
-134.106
11
181.3
21
-103.347
0
LINE
8
BLACK
6
CONTINUOUS
10
181.3
20
-103.347
11
181.286
21
-103.2
0
LINE
8
BLACK
6
CONTINUOUS
10
181.286
20
-103.2
11
181.3
21
-103.053
0
LINE
8
BLACK
6
CONTINUOUS
10
181.3
20
-103.053
11
181.3
21
-98.1
0
LINE
8
BLACK
6
CONTINUOUS
10
181.3
20
-98.1
11
168.509
21
-98.1
0
LINE
8
BLACK
6
CONTINUOUS
10
168.509
20
-98.1
11
168.45
21
-98.1058
0
LINE
8
BLACK
6
CONTINUOUS
10
168.45
20
-98.1058
11
168.215
21
-98.0826
0
LINE
8
BLACK
6
CONTINUOUS
10
168.215
20
-98.0826
11
167.989
21
-98.014
0
LINE
8
BLACK
6
CONTINUOUS
10
167.989
20
-98.014
11
167.78
21
-97.9026
0
LINE
8
BLACK
6
CONTINUOUS
10
167.78
20
-97.9026
11
167.597
21
-97.7526
0
LINE
8
BLACK
6
CONTINUOUS
10
167.597
20
-97.7526
11
167.447
21
-97.5699
0
LINE
8
BLACK
6
CONTINUOUS
10
167.447
20
-97.5699
11
167.336
21
-97.3614
0
LINE
8
BLACK
6
CONTINUOUS
10
167.336
20
-97.3614
11
167.267
21
-97.1352
0
LINE
8
BLACK
6
CONTINUOUS
10
167.267
20
-97.1352
11
167.25
21
-96.9589
0
LINE
8
BLACK
6
CONTINUOUS
10
167.25
20
-96.9589
11
167.25
21
-96.9169
0
LINE
8
BLACK
6
CONTINUOUS
10
167.25
20
-96.9169
11
167.248
21
-96.9
0
LINE
8
BLACK
6
CONTINUOUS
10
167.248
20
-96.9
11
167.25
21
-96.8831
0
LINE
8
BLACK
6
CONTINUOUS
10
167.25
20
-96.8831
11
167.25
21
-94.6962
0
LINE
8
BLACK
6
CONTINUOUS
10
167.25
20
-94.6962
11
160.675
21
-94.6962
0
LINE
8
BLACK
6
CONTINUOUS
10
139.4
20
-97.375
11
139.4
21
-129.75
0
LINE
8
BLACK
6
CONTINUOUS
10
139.4
20
-129.75
11
146.776
21
-129.75
0
LINE
8
BLACK
6
CONTINUOUS
10
146.776
20
-129.75
11
146.776
21
-97.375
0
LINE
8
BLACK
6
CONTINUOUS
10
146.776
20
-97.375
11
139.4
21
-97.375
0
LINE
8
BLACK
6
CONTINUOUS
10
219.1
20
-122
11
219.1
21
-128.4
0
LINE
8
BLACK
6
CONTINUOUS
10
219.1
20
-128.4
11
236.222
21
-128.4
0
LINE
8
BLACK
6
CONTINUOUS
10
236.222
20
-128.4
11
236.222
21
-122
0
LINE
8
BLACK
6
CONTINUOUS
10
236.222
20
-122
11
219.1
21
-122
0
LINE
8
BLACK
6
CONTINUOUS
10
252.384
20
-104.4
11
252.325
21
-104.406
0
LINE
8
BLACK
6
CONTINUOUS
10
252.325
20
-104.406
11
252.266
21
-104.4
0
LINE
8
BLACK
6
CONTINUOUS
10
252.266
20
-104.4
11
248.675
21
-104.4
0
LINE
8
BLACK
6
CONTINUOUS
10
248.675
20
-104.4
11
248.675
21
-119.6
0
LINE
8
BLACK
6
CONTINUOUS
10
248.675
20
-119.6
11
269.35
21
-119.6
0
LINE
8
BLACK
6
CONTINUOUS
10
269.35
20
-119.6
11
269.35
21
-105.009
0
LINE
8
BLACK
6
CONTINUOUS
10
269.35
20
-105.009
11
269.344
21
-104.95
0
LINE
8
BLACK
6
CONTINUOUS
10
269.344
20
-104.95
11
269.35
21
-104.891
0
LINE
8
BLACK
6
CONTINUOUS
10
269.35
20
-104.891
11
269.35
21
-104.4
0
LINE
8
BLACK
6
CONTINUOUS
10
269.35
20
-104.4
11
252.384
21
-104.4
0
LINE
8
BLACK
6
CONTINUOUS
10
219.1
20
-113.2
11
219.1
21
-119.6
0
LINE
8
BLACK
6
CONTINUOUS
10
219.1
20
-119.6
11
236.222
21
-119.6
0
LINE
8
BLACK
6
CONTINUOUS
10
236.222
20
-119.6
11
236.222
21
-113.2
0
LINE
8
BLACK
6
CONTINUOUS
10
236.222
20
-113.2
11
219.1
21
-113.2
0
LINE
8
BLACK
6
CONTINUOUS
10
247.15
20
-84.1
11
247.15
21
-96.216
0
LINE
8
BLACK
6
CONTINUOUS
10
247.15
20
-96.216
11
247.156
21
-96.275
0
LINE
8
BLACK
6
CONTINUOUS
10
247.156
20
-96.275
11
247.133
21
-96.5102
0
LINE
8
BLACK
6
CONTINUOUS
10
247.133
20
-96.5102
11
247.064
21
-96.7364
0
LINE
8
BLACK
6
CONTINUOUS
10
247.064
20
-96.7364
11
246.953
21
-96.9449
0
LINE
8
BLACK
6
CONTINUOUS
10
246.953
20
-96.9449
11
246.803
21
-97.1276
0
LINE
8
BLACK
6
CONTINUOUS
10
246.803
20
-97.1276
11
246.62
21
-97.2776
0
LINE
8
BLACK
6
CONTINUOUS
10
246.62
20
-97.2776
11
246.411
21
-97.389
0
LINE
8
BLACK
6
CONTINUOUS
10
246.411
20
-97.389
11
246.185
21
-97.4576
0
LINE
8
BLACK
6
CONTINUOUS
10
246.185
20
-97.4576
11
246.009
21
-97.475
0
LINE
8
BLACK
6
CONTINUOUS
10
246.009
20
-97.475
11
245.95
21
-97.4808
0
LINE
8
BLACK
6
CONTINUOUS
10
245.95
20
-97.4808
11
245.891
21
-97.475
0
LINE
8
BLACK
6
CONTINUOUS
10
245.891
20
-97.475
11
238.625
21
-97.475
0
LINE
8
BLACK
6
CONTINUOUS
10
238.625
20
-97.475
11
238.625
21
-102.91
0
LINE
8
BLACK
6
CONTINUOUS
10
238.625
20
-102.91
11
238.628
21
-102.943
0
LINE
8
BLACK
6
CONTINUOUS
10
238.628
20
-102.943
11
238.625
21
-102.977
0
LINE
8
BLACK
6
CONTINUOUS
10
238.625
20
-102.977
11
238.625
21
-103.167
0
LINE
8
BLACK
6
CONTINUOUS
10
238.625
20
-103.167
11
238.628
21
-103.2
0
LINE
8
BLACK
6
CONTINUOUS
10
238.628
20
-103.2
11
238.625
21
-103.233
0
LINE
8
BLACK
6
CONTINUOUS
10
238.625
20
-103.233
11
238.625
21
-103.259
0
LINE
8
BLACK
6
CONTINUOUS
10
238.625
20
-103.259
11
238.622
21
-103.285
0
LINE
8
BLACK
6
CONTINUOUS
10
238.622
20
-103.285
11
238.622
21
-111.941
0
LINE
8
BLACK
6
CONTINUOUS
10
238.622
20
-111.941
11
238.628
21
-112
0
LINE
8
BLACK
6
CONTINUOUS
10
238.628
20
-112
11
238.622
21
-112.059
0
LINE
8
BLACK
6
CONTINUOUS
10
238.622
20
-112.059
11
238.622
21
-119.6
0
LINE
8
BLACK
6
CONTINUOUS
10
238.622
20
-119.6
11
246.275
21
-119.6
0
LINE
8
BLACK
6
CONTINUOUS
10
246.275
20
-119.6
11
246.275
21
-103.259
0
LINE
8
BLACK
6
CONTINUOUS
10
246.275
20
-103.259
11
246.269
21
-103.2
0
LINE
8
BLACK
6
CONTINUOUS
10
246.269
20
-103.2
11
246.292
21
-102.965
0
LINE
8
BLACK
6
CONTINUOUS
10
246.292
20
-102.965
11
246.361
21
-102.739
0
LINE
8
BLACK
6
CONTINUOUS
10
246.361
20
-102.739
11
246.472
21
-102.53
0
LINE
8
BLACK
6
CONTINUOUS
10
246.472
20
-102.53
11
246.622
21
-102.347
0
LINE
8
BLACK
6
CONTINUOUS
10
246.622
20
-102.347
11
246.805
21
-102.197
0
LINE
8
BLACK
6
CONTINUOUS
10
246.805
20
-102.197
11
247.014
21
-102.086
0
LINE
8
BLACK
6
CONTINUOUS
10
247.014
20
-102.086
11
247.24
21
-102.017
0
LINE
8
BLACK
6
CONTINUOUS
10
247.24
20
-102.017
11
247.416
21
-102
0
LINE
8
BLACK
6
CONTINUOUS
10
247.416
20
-102
11
247.475
21
-101.994
0
LINE
8
BLACK
6
CONTINUOUS
10
247.475
20
-101.994
11
247.534
21
-102
0
LINE
8
BLACK
6
CONTINUOUS
10
247.534
20
-102
11
251.125
21
-102
0
LINE
8
BLACK
6
CONTINUOUS
10
251.125
20
-102
11
251.125
21
-84.1
0
LINE
8
BLACK
6
CONTINUOUS
10
251.125
20
-84.1
11
247.15
21
-84.1
0
LINE
8
BLACK
6
CONTINUOUS
10
225.584
20
-104.4
11
225.525
21
-104.406
0
LINE
8
BLACK
6
CONTINUOUS
10
225.525
20
-104.406
11
225.466
21
-104.4
0
LINE
8
BLACK
6
CONTINUOUS
10
225.466
20
-104.4
11
219.1
21
-104.4
0
LINE
8
BLACK
6
CONTINUOUS
10
219.1
20
-104.4
11
219.1
21
-110.8
0
LINE
8
BLACK
6
CONTINUOUS
10
219.1
20
-110.8
11
236.222
21
-110.8
0
LINE
8
BLACK
6
CONTINUOUS
10
236.222
20
-110.8
11
236.222
21
-104.4
0
LINE
8
BLACK
6
CONTINUOUS
10
236.222
20
-104.4
11
225.584
21
-104.4
0
LINE
8
BLACK
6
CONTINUOUS
10
253.525
20
-77.425
11
253.525
21
-82.841
0
LINE
8
BLACK
6
CONTINUOUS
10
253.525
20
-82.841
11
253.531
21
-82.9
0
LINE
8
BLACK
6
CONTINUOUS
10
253.531
20
-82.9
11
253.525
21
-82.9589
0
LINE
8
BLACK
6
CONTINUOUS
10
253.525
20
-82.9589
11
253.525
21
-102
0
LINE
8
BLACK
6
CONTINUOUS
10
253.525
20
-102
11
270.491
21
-102
0
LINE
8
BLACK
6
CONTINUOUS
10
270.491
20
-102
11
270.55
21
-101.994
0
LINE
8
BLACK
6
CONTINUOUS
10
270.55
20
-101.994
11
270.609
21
-102
0
LINE
8
BLACK
6
CONTINUOUS
10
270.609
20
-102
11
270.785
21
-102.017
0
LINE
8
BLACK
6
CONTINUOUS
10
270.785
20
-102.017
11
271.011
21
-102.086
0
LINE
8
BLACK
6
CONTINUOUS
10
271.011
20
-102.086
11
271.22
21
-102.197
0
LINE
8
BLACK
6
CONTINUOUS
10
271.22
20
-102.197
11
271.403
21
-102.347
0
LINE
8
BLACK
6
CONTINUOUS
10
271.403
20
-102.347
11
271.553
21
-102.53
0
LINE
8
BLACK
6
CONTINUOUS
10
271.553
20
-102.53
11
271.664
21
-102.739
0
LINE
8
BLACK
6
CONTINUOUS
10
271.664
20
-102.739
11
271.733
21
-102.965
0
LINE
8
BLACK
6
CONTINUOUS
10
271.733
20
-102.965
11
271.756
21
-103.2
0
LINE
8
BLACK
6
CONTINUOUS
10
271.756
20
-103.2
11
271.75
21
-103.259
0
LINE
8
BLACK
6
CONTINUOUS
10
271.75
20
-103.259
11
271.75
21
-103.75
0
LINE
8
BLACK
6
CONTINUOUS
10
271.75
20
-103.75
11
285.875
21
-103.75
0
LINE
8
BLACK
6
CONTINUOUS
10
285.875
20
-103.75
11
285.875
21
-77.425
0
LINE
8
BLACK
6
CONTINUOUS
10
285.875
20
-77.425
11
253.525
21
-77.425
0
LINE
8
BLACK
6
CONTINUOUS
10
226.725
20
-97.475
11
226.725
21
-102
0
LINE
8
BLACK
6
CONTINUOUS
10
226.725
20
-102
11
236.222
21
-102
0
LINE
8
BLACK
6
CONTINUOUS
10
236.222
20
-102
11
236.222
21
-101.347
0
LINE
8
BLACK
6
CONTINUOUS
10
236.222
20
-101.347
11
236.225
21
-101.321
0
LINE
8
BLACK
6
CONTINUOUS
10
236.225
20
-101.321
11
236.225
21
-97.475
0
LINE
8
BLACK
6
CONTINUOUS
10
236.225
20
-97.475
11
226.725
21
-97.475
0
LINE
8
BLACK
6
CONTINUOUS
10
197.275
20
-97.05
11
197.275
21
-102
0
LINE
8
BLACK
6
CONTINUOUS
10
197.275
20
-102
11
212.35
21
-102
0
LINE
8
BLACK
6
CONTINUOUS
10
212.35
20
-102
11
212.35
21
-97.05
0
LINE
8
BLACK
6
CONTINUOUS
10
212.35
20
-97.05
11
197.275
21
-97.05
0
LINE
8
BLACK
6
CONTINUOUS
10
214.75
20
-95.791
11
214.756
21
-95.85
0
LINE
8
BLACK
6
CONTINUOUS
10
214.756
20
-95.85
11
214.75
21
-95.9089
0
LINE
8
BLACK
6
CONTINUOUS
10
214.75
20
-95.9089
11
214.75
21
-102
0
LINE
8
BLACK
6
CONTINUOUS
10
214.75
20
-102
11
217.841
21
-102
0
LINE
8
BLACK
6
CONTINUOUS
10
217.841
20
-102
11
217.9
21
-101.994
0
LINE
8
BLACK
6
CONTINUOUS
10
217.9
20
-101.994
11
217.959
21
-102
0
LINE
8
BLACK
6
CONTINUOUS
10
217.959
20
-102
11
224.325
21
-102
0
LINE
8
BLACK
6
CONTINUOUS
10
224.325
20
-102
11
224.325
21
-97.475
0
LINE
8
BLACK
6
CONTINUOUS
10
224.325
20
-97.475
11
222.757
21
-97.475
0
LINE
8
BLACK
6
CONTINUOUS
10
222.757
20
-97.475
11
222.625
21
-97.488
0
LINE
8
BLACK
6
CONTINUOUS
10
222.625
20
-97.488
11
222.39
21
-97.4648
0
LINE
8
BLACK
6
CONTINUOUS
10
222.39
20
-97.4648
11
222.164
21
-97.3962
0
LINE
8
BLACK
6
CONTINUOUS
10
222.164
20
-97.3962
11
221.955
21
-97.2848
0
LINE
8
BLACK
6
CONTINUOUS
10
221.955
20
-97.2848
11
221.772
21
-97.1348
0
LINE
8
BLACK
6
CONTINUOUS
10
221.772
20
-97.1348
11
221.622
21
-96.9521
0
LINE
8
BLACK
6
CONTINUOUS
10
221.622
20
-96.9521
11
221.511
21
-96.7437
0
LINE
8
BLACK
6
CONTINUOUS
10
221.511
20
-96.7437
11
221.442
21
-96.5174
0
LINE
8
BLACK
6
CONTINUOUS
10
221.442
20
-96.5174
11
221.425
21
-96.3412
0
LINE
8
BLACK
6
CONTINUOUS
10
221.425
20
-96.3412
11
221.425
21
-96.3339
0
LINE
8
BLACK
6
CONTINUOUS
10
221.425
20
-96.3339
11
221.419
21
-96.275
0
LINE
8
BLACK
6
CONTINUOUS
10
221.419
20
-96.275
11
221.425
21
-96.216
0
LINE
8
BLACK
6
CONTINUOUS
10
221.425
20
-96.216
11
221.425
21
-92.3264
0
LINE
8
BLACK
6
CONTINUOUS
10
221.425
20
-92.3264
11
214.75
21
-92.3264
0
LINE
8
BLACK
6
CONTINUOUS
10
214.75
20
-92.3264
11
214.75
21
-95.791
0
LINE
8
BLACK
6
CONTINUOUS
10
184.55
20
-89.34
11
184.55
21
-95.691
0
LINE
8
BLACK
6
CONTINUOUS
10
184.55
20
-95.691
11
184.556
21
-95.75
0
LINE
8
BLACK
6
CONTINUOUS
10
184.556
20
-95.75
11
184.533
21
-95.9852
0
LINE
8
BLACK
6
CONTINUOUS
10
184.533
20
-95.9852
11
184.533
21
-95.9852
0
LINE
8
BLACK
6
CONTINUOUS
10
184.533
20
-95.9852
11
184.533
21
-95.9852
0
LINE
8
BLACK
6
CONTINUOUS
10
184.533
20
-95.9852
11
184.464
21
-96.2114
0
LINE
8
BLACK
6
CONTINUOUS
10
184.464
20
-96.2114
11
184.415
21
-96.3028
0
LINE
8
BLACK
6
CONTINUOUS
10
184.415
20
-96.3028
11
184.353
21
-96.4199
0
LINE
8
BLACK
6
CONTINUOUS
10
184.353
20
-96.4199
11
184.353
21
-96.4199
0
LINE
8
BLACK
6
CONTINUOUS
10
184.353
20
-96.4199
11
184.353
21
-96.4199
0
LINE
8
BLACK
6
CONTINUOUS
10
184.353
20
-96.4199
11
184.203
21
-96.6026
0
LINE
8
BLACK
6
CONTINUOUS
10
184.203
20
-96.6026
11
184.157
21
-96.6402
0
LINE
8
BLACK
6
CONTINUOUS
10
184.157
20
-96.6402
11
183.7
21
-97.097
0
LINE
8
BLACK
6
CONTINUOUS
10
183.7
20
-97.097
11
183.7
21
-102
0
LINE
8
BLACK
6
CONTINUOUS
10
183.7
20
-102
11
194.875
21
-102
0
LINE
8
BLACK
6
CONTINUOUS
10
194.875
20
-102
11
194.875
21
-95.909
0
LINE
8
BLACK
6
CONTINUOUS
10
194.875
20
-95.909
11
194.869
21
-95.85
0
LINE
8
BLACK
6
CONTINUOUS
10
194.869
20
-95.85
11
194.875
21
-95.791
0
LINE
8
BLACK
6
CONTINUOUS
10
194.875
20
-95.791
11
194.875
21
-89.34
0
LINE
8
BLACK
6
CONTINUOUS
10
194.875
20
-89.34
11
184.55
21
-89.34
0
LINE
8
BLACK
6
CONTINUOUS
10
169.65
20
-86.075
11
169.65
21
-93.3952
0
LINE
8
BLACK
6
CONTINUOUS
10
169.65
20
-93.3952
11
169.66
21
-93.4962
0
LINE
8
BLACK
6
CONTINUOUS
10
169.66
20
-93.4962
11
169.65
21
-93.5972
0
LINE
8
BLACK
6
CONTINUOUS
10
169.65
20
-93.5972
11
169.65
21
-95.7
0
LINE
8
BLACK
6
CONTINUOUS
10
169.65
20
-95.7
11
181.703
21
-95.7
0
LINE
8
BLACK
6
CONTINUOUS
10
181.703
20
-95.7
11
182.15
21
-95.2529
0
LINE
8
BLACK
6
CONTINUOUS
10
182.15
20
-95.2529
11
182.15
21
-86.075
0
LINE
8
BLACK
6
CONTINUOUS
10
182.15
20
-86.075
11
169.65
21
-86.075
0
LINE
8
BLACK
6
CONTINUOUS
10
221.525
20
-64.4058
11
221.466
21
-64.4
0
LINE
8
BLACK
6
CONTINUOUS
10
221.466
20
-64.4
11
194.259
21
-64.4
0
LINE
8
BLACK
6
CONTINUOUS
10
194.259
20
-64.4
11
194.2
21
-64.4058
0
LINE
8
BLACK
6
CONTINUOUS
10
194.2
20
-64.4058
11
194.141
21
-64.4
0
LINE
8
BLACK
6
CONTINUOUS
10
194.141
20
-64.4
11
192.6
21
-64.4
0
LINE
8
BLACK
6
CONTINUOUS
10
192.6
20
-64.4
11
192.6
21
-73.3196
0
LINE
8
BLACK
6
CONTINUOUS
10
192.6
20
-73.3196
11
192.736
21
-73.361
0
LINE
8
BLACK
6
CONTINUOUS
10
192.736
20
-73.361
11
192.945
21
-73.4724
0
LINE
8
BLACK
6
CONTINUOUS
10
192.945
20
-73.4724
11
193.082
21
-73.5848
0
LINE
8
BLACK
6
CONTINUOUS
10
193.082
20
-73.5848
11
196.882
21
-77.3848
0
LINE
8
BLACK
6
CONTINUOUS
10
196.882
20
-77.3848
11
196.928
21
-77.4224
0
LINE
8
BLACK
6
CONTINUOUS
10
196.928
20
-77.4224
11
197.078
21
-77.6051
0
LINE
8
BLACK
6
CONTINUOUS
10
197.078
20
-77.6051
11
197.189
21
-77.8136
0
LINE
8
BLACK
6
CONTINUOUS
10
197.189
20
-77.8136
11
197.258
21
-78.0398
0
LINE
8
BLACK
6
CONTINUOUS
10
197.258
20
-78.0398
11
197.281
21
-78.275
0
LINE
8
BLACK
6
CONTINUOUS
10
197.281
20
-78.275
11
197.275
21
-78.334
0
LINE
8
BLACK
6
CONTINUOUS
10
197.275
20
-78.334
11
197.275
21
-87.8796
0
LINE
8
BLACK
6
CONTINUOUS
10
197.275
20
-87.8796
11
197.283
21
-87.9048
0
LINE
8
BLACK
6
CONTINUOUS
10
197.283
20
-87.9048
11
197.306
21
-88.14
0
LINE
8
BLACK
6
CONTINUOUS
10
197.306
20
-88.14
11
197.283
21
-88.3753
0
LINE
8
BLACK
6
CONTINUOUS
10
197.283
20
-88.3753
11
197.275
21
-88.4004
0
LINE
8
BLACK
6
CONTINUOUS
10
197.275
20
-88.4004
11
197.275
21
-94.65
0
LINE
8
BLACK
6
CONTINUOUS
10
197.275
20
-94.65
11
212.35
21
-94.65
0
LINE
8
BLACK
6
CONTINUOUS
10
212.35
20
-94.65
11
212.35
21
-91.1854
0
LINE
8
BLACK
6
CONTINUOUS
10
212.35
20
-91.1854
11
212.344
21
-91.1264
0
LINE
8
BLACK
6
CONTINUOUS
10
212.344
20
-91.1264
11
212.367
21
-90.8912
0
LINE
8
BLACK
6
CONTINUOUS
10
212.367
20
-90.8912
11
212.436
21
-90.665
0
LINE
8
BLACK
6
CONTINUOUS
10
212.436
20
-90.665
11
212.547
21
-90.4565
0
LINE
8
BLACK
6
CONTINUOUS
10
212.547
20
-90.4565
11
212.697
21
-90.2738
0
LINE
8
BLACK
6
CONTINUOUS
10
212.697
20
-90.2738
11
212.88
21
-90.1238
0
LINE
8
BLACK
6
CONTINUOUS
10
212.88
20
-90.1238
11
213.089
21
-90.0124
0
LINE
8
BLACK
6
CONTINUOUS
10
213.089
20
-90.0124
11
213.315
21
-89.9438
0
LINE
8
BLACK
6
CONTINUOUS
10
213.315
20
-89.9438
11
213.491
21
-89.9264
0
LINE
8
BLACK
6
CONTINUOUS
10
213.491
20
-89.9264
11
213.55
21
-89.9206
0
LINE
8
BLACK
6
CONTINUOUS
10
213.55
20
-89.9206
11
213.609
21
-89.9264
0
LINE
8
BLACK
6
CONTINUOUS
10
213.609
20
-89.9264
11
222.566
21
-89.9264
0
LINE
8
BLACK
6
CONTINUOUS
10
222.566
20
-89.9264
11
222.625
21
-89.9206
0
LINE
8
BLACK
6
CONTINUOUS
10
222.625
20
-89.9206
11
222.684
21
-89.9264
0
LINE
8
BLACK
6
CONTINUOUS
10
222.684
20
-89.9264
11
222.86
21
-89.9438
0
LINE
8
BLACK
6
CONTINUOUS
10
222.86
20
-89.9438
11
223.086
21
-90.0124
0
LINE
8
BLACK
6
CONTINUOUS
10
223.086
20
-90.0124
11
223.295
21
-90.1238
0
LINE
8
BLACK
6
CONTINUOUS
10
223.295
20
-90.1238
11
223.478
21
-90.2738
0
LINE
8
BLACK
6
CONTINUOUS
10
223.478
20
-90.2738
11
223.628
21
-90.4565
0
LINE
8
BLACK
6
CONTINUOUS
10
223.628
20
-90.4565
11
223.739
21
-90.665
0
LINE
8
BLACK
6
CONTINUOUS
10
223.739
20
-90.665
11
223.808
21
-90.8912
0
LINE
8
BLACK
6
CONTINUOUS
10
223.808
20
-90.8912
11
223.831
21
-91.1264
0
LINE
8
BLACK
6
CONTINUOUS
10
223.831
20
-91.1264
11
223.825
21
-91.1854
0
LINE
8
BLACK
6
CONTINUOUS
10
223.825
20
-91.1854
11
223.825
21
-95.075
0
LINE
8
BLACK
6
CONTINUOUS
10
223.825
20
-95.075
11
237.366
21
-95.075
0
LINE
8
BLACK
6
CONTINUOUS
10
237.366
20
-95.075
11
237.425
21
-95.0692
0
LINE
8
BLACK
6
CONTINUOUS
10
237.425
20
-95.0692
11
237.484
21
-95.075
0
LINE
8
BLACK
6
CONTINUOUS
10
237.484
20
-95.075
11
244.75
21
-95.075
0
LINE
8
BLACK
6
CONTINUOUS
10
244.75
20
-95.075
11
244.75
21
-82.959
0
LINE
8
BLACK
6
CONTINUOUS
10
244.75
20
-82.959
11
244.744
21
-82.9
0
LINE
8
BLACK
6
CONTINUOUS
10
244.744
20
-82.9
11
244.75
21
-82.841
0
LINE
8
BLACK
6
CONTINUOUS
10
244.75
20
-82.841
11
244.75
21
-67.634
0
LINE
8
BLACK
6
CONTINUOUS
10
244.75
20
-67.634
11
244.75
21
-67.634
0
LINE
8
BLACK
6
CONTINUOUS
10
244.75
20
-67.634
11
244.75
21
-67.5339
0
LINE
8
BLACK
6
CONTINUOUS
10
244.75
20
-67.5339
11
244.744
21
-67.475
0
LINE
8
BLACK
6
CONTINUOUS
10
244.744
20
-67.475
11
244.75
21
-67.416
0
LINE
8
BLACK
6
CONTINUOUS
10
244.75
20
-67.416
11
244.75
21
-64.4
0
LINE
8
BLACK
6
CONTINUOUS
10
244.75
20
-64.4
11
235.934
21
-64.4
0
LINE
8
BLACK
6
CONTINUOUS
10
235.934
20
-64.4
11
235.875
21
-64.4058
0
LINE
8
BLACK
6
CONTINUOUS
10
235.875
20
-64.4058
11
235.816
21
-64.4
0
LINE
8
BLACK
6
CONTINUOUS
10
235.816
20
-64.4
11
221.584
21
-64.4
0
LINE
8
BLACK
6
CONTINUOUS
10
221.584
20
-64.4
11
221.525
21
-64.4058
0
LINE
8
BLACK
6
CONTINUOUS
10
139.4
20
-82.3
11
139.4
21
-94.975
0
LINE
8
BLACK
6
CONTINUOUS
10
139.4
20
-94.975
11
147.917
21
-94.975
0
LINE
8
BLACK
6
CONTINUOUS
10
147.917
20
-94.975
11
147.976
21
-94.9692
0
LINE
8
BLACK
6
CONTINUOUS
10
147.976
20
-94.9692
11
148.035
21
-94.975
0
LINE
8
BLACK
6
CONTINUOUS
10
148.035
20
-94.975
11
148.45
21
-94.975
0
LINE
8
BLACK
6
CONTINUOUS
10
148.45
20
-94.975
11
148.45
21
-82.3
0
LINE
8
BLACK
6
CONTINUOUS
10
148.45
20
-82.3
11
139.4
21
-82.3
0
LINE
8
BLACK
6
CONTINUOUS
10
151.109
20
-82.3
11
151.05
21
-82.3058
0
LINE
8
BLACK
6
CONTINUOUS
10
151.05
20
-82.3058
11
150.991
21
-82.3
0
LINE
8
BLACK
6
CONTINUOUS
10
150.991
20
-82.3
11
150.85
21
-82.3
0
LINE
8
BLACK
6
CONTINUOUS
10
150.85
20
-82.3
11
150.85
21
-94.975
0
LINE
8
BLACK
6
CONTINUOUS
10
150.85
20
-94.975
11
158.275
21
-94.975
0
LINE
8
BLACK
6
CONTINUOUS
10
158.275
20
-94.975
11
158.275
21
-93.5551
0
LINE
8
BLACK
6
CONTINUOUS
10
158.275
20
-93.5551
11
158.269
21
-93.4962
0
LINE
8
BLACK
6
CONTINUOUS
10
158.269
20
-93.4962
11
158.275
21
-93.4372
0
LINE
8
BLACK
6
CONTINUOUS
10
158.275
20
-93.4372
11
158.275
21
-83.3519
0
LINE
8
BLACK
6
CONTINUOUS
10
158.275
20
-83.3519
11
158.275
21
-83.3519
0
LINE
8
BLACK
6
CONTINUOUS
10
158.275
20
-83.3519
11
158.275
21
-82.3
0
LINE
8
BLACK
6
CONTINUOUS
10
158.275
20
-82.3
11
151.109
21
-82.3
0
LINE
8
BLACK
6
CONTINUOUS
10
167.25
20
-92.2962
11
167.25
21
-84.9339
0
LINE
8
BLACK
6
CONTINUOUS
10
167.25
20
-84.9339
11
167.25
21
-84.9339
0
LINE
8
BLACK
6
CONTINUOUS
10
167.25
20
-84.9339
11
167.25
21
-84.8919
0
LINE
8
BLACK
6
CONTINUOUS
10
167.25
20
-84.8919
11
167.248
21
-84.875
0
LINE
8
BLACK
6
CONTINUOUS
10
167.248
20
-84.875
11
167.25
21
-84.8581
0
LINE
8
BLACK
6
CONTINUOUS
10
167.25
20
-84.8581
11
167.25
21
-82.3
0
LINE
8
BLACK
6
CONTINUOUS
10
167.25
20
-82.3
11
160.675
21
-82.3
0
LINE
8
BLACK
6
CONTINUOUS
10
160.675
20
-82.3
11
160.675
21
-92.2962
0
LINE
8
BLACK
6
CONTINUOUS
10
160.675
20
-92.2962
11
167.25
21
-92.2962
0
LINE
8
BLACK
6
CONTINUOUS
10
170.8
20
-75.6808
11
170.741
21
-75.675
0
LINE
8
BLACK
6
CONTINUOUS
10
170.741
20
-75.675
11
152.25
21
-75.675
0
LINE
8
BLACK
6
CONTINUOUS
10
152.25
20
-75.675
11
152.25
21
-79.9
0
LINE
8
BLACK
6
CONTINUOUS
10
152.25
20
-79.9
11
159.416
21
-79.9
0
LINE
8
BLACK
6
CONTINUOUS
10
159.416
20
-79.9
11
159.475
21
-79.8942
0
LINE
8
BLACK
6
CONTINUOUS
10
159.475
20
-79.8942
11
159.534
21
-79.9
0
LINE
8
BLACK
6
CONTINUOUS
10
159.534
20
-79.9
11
168.391
21
-79.9
0
LINE
8
BLACK
6
CONTINUOUS
10
168.391
20
-79.9
11
168.45
21
-79.8942
0
LINE
8
BLACK
6
CONTINUOUS
10
168.45
20
-79.8942
11
168.509
21
-79.9
0
LINE
8
BLACK
6
CONTINUOUS
10
168.509
20
-79.9
11
168.534
21
-79.9
0
LINE
8
BLACK
6
CONTINUOUS
10
168.534
20
-79.9
11
168.71
21
-79.9174
0
LINE
8
BLACK
6
CONTINUOUS
10
168.71
20
-79.9174
11
168.936
21
-79.986
0
LINE
8
BLACK
6
CONTINUOUS
10
168.936
20
-79.986
11
169.145
21
-80.0974
0
LINE
8
BLACK
6
CONTINUOUS
10
169.145
20
-80.0974
11
169.328
21
-80.2474
0
LINE
8
BLACK
6
CONTINUOUS
10
169.328
20
-80.2474
11
169.478
21
-80.4301
0
LINE
8
BLACK
6
CONTINUOUS
10
169.478
20
-80.4301
11
169.589
21
-80.6386
0
LINE
8
BLACK
6
CONTINUOUS
10
169.589
20
-80.6386
11
169.658
21
-80.8648
0
LINE
8
BLACK
6
CONTINUOUS
10
169.658
20
-80.8648
11
169.681
21
-81.1
0
LINE
8
BLACK
6
CONTINUOUS
10
169.681
20
-81.1
11
169.658
21
-81.3352
0
LINE
8
BLACK
6
CONTINUOUS
10
169.658
20
-81.3352
11
169.65
21
-81.3604
0
LINE
8
BLACK
6
CONTINUOUS
10
169.65
20
-81.3604
11
169.65
21
-83.675
0
LINE
8
BLACK
6
CONTINUOUS
10
169.65
20
-83.675
11
183.291
21
-83.675
0
LINE
8
BLACK
6
CONTINUOUS
10
183.291
20
-83.675
11
183.35
21
-83.6692
0
LINE
8
BLACK
6
CONTINUOUS
10
183.35
20
-83.6692
11
183.409
21
-83.675
0
LINE
8
BLACK
6
CONTINUOUS
10
183.409
20
-83.675
11
183.585
21
-83.6924
0
LINE
8
BLACK
6
CONTINUOUS
10
183.585
20
-83.6924
11
183.811
21
-83.761
0
LINE
8
BLACK
6
CONTINUOUS
10
183.811
20
-83.761
11
184.02
21
-83.8724
0
LINE
8
BLACK
6
CONTINUOUS
10
184.02
20
-83.8724
11
184.203
21
-84.0224
0
LINE
8
BLACK
6
CONTINUOUS
10
184.203
20
-84.0224
11
184.353
21
-84.2051
0
LINE
8
BLACK
6
CONTINUOUS
10
184.353
20
-84.2051
11
184.464
21
-84.4135
0
LINE
8
BLACK
6
CONTINUOUS
10
184.464
20
-84.4135
11
184.533
21
-84.6397
0
LINE
8
BLACK
6
CONTINUOUS
10
184.533
20
-84.6397
11
184.556
21
-84.875
0
LINE
8
BLACK
6
CONTINUOUS
10
184.556
20
-84.875
11
184.55
21
-84.9339
0
LINE
8
BLACK
6
CONTINUOUS
10
184.55
20
-84.9339
11
184.55
21
-86.94
0
LINE
8
BLACK
6
CONTINUOUS
10
184.55
20
-86.94
11
194.875
21
-86.94
0
LINE
8
BLACK
6
CONTINUOUS
10
194.875
20
-86.94
11
194.875
21
-84.6197
0
LINE
8
BLACK
6
CONTINUOUS
10
194.875
20
-84.6197
11
194.875
21
-84.6197
0
LINE
8
BLACK
6
CONTINUOUS
10
194.875
20
-84.6197
11
194.875
21
-80.1839
0
LINE
8
BLACK
6
CONTINUOUS
10
194.875
20
-80.1839
11
194.875
21
-80.1839
0
LINE
8
BLACK
6
CONTINUOUS
10
194.875
20
-80.1839
11
194.875
21
-78.7721
0
LINE
8
BLACK
6
CONTINUOUS
10
194.875
20
-78.7721
11
191.731
21
-75.6285
0
LINE
8
BLACK
6
CONTINUOUS
10
191.731
20
-75.6285
11
191.635
21
-75.6576
0
LINE
8
BLACK
6
CONTINUOUS
10
191.635
20
-75.6576
11
191.459
21
-75.675
0
LINE
8
BLACK
6
CONTINUOUS
10
191.459
20
-75.675
11
191.4
21
-75.6808
0
LINE
8
BLACK
6
CONTINUOUS
10
191.4
20
-75.6808
11
191.341
21
-75.675
0
LINE
8
BLACK
6
CONTINUOUS
10
191.341
20
-75.675
11
170.859
21
-75.675
0
LINE
8
BLACK
6
CONTINUOUS
10
170.859
20
-75.675
11
170.8
21
-75.6808
0
LINE
8
BLACK
6
CONTINUOUS
10
247.15
20
-68.675
11
247.15
21
-81.7
0
LINE
8
BLACK
6
CONTINUOUS
10
247.15
20
-81.7
11
251.125
21
-81.7
0
LINE
8
BLACK
6
CONTINUOUS
10
251.125
20
-81.7
11
251.125
21
-76.284
0
LINE
8
BLACK
6
CONTINUOUS
10
251.125
20
-76.284
11
251.119
21
-76.225
0
LINE
8
BLACK
6
CONTINUOUS
10
251.119
20
-76.225
11
251.125
21
-76.166
0
LINE
8
BLACK
6
CONTINUOUS
10
251.125
20
-76.166
11
251.125
21
-68.675
0
LINE
8
BLACK
6
CONTINUOUS
10
251.125
20
-68.675
11
247.15
21
-68.675
0
LINE
8
BLACK
6
CONTINUOUS
10
139.477
20
-63.1
11
139.477
21
-79.9
0
LINE
8
BLACK
6
CONTINUOUS
10
139.477
20
-79.9
11
149.591
21
-79.9
0
LINE
8
BLACK
6
CONTINUOUS
10
149.591
20
-79.9
11
149.65
21
-79.8942
0
LINE
8
BLACK
6
CONTINUOUS
10
149.65
20
-79.8942
11
149.709
21
-79.9
0
LINE
8
BLACK
6
CONTINUOUS
10
149.709
20
-79.9
11
149.85
21
-79.9
0
LINE
8
BLACK
6
CONTINUOUS
10
149.85
20
-79.9
11
149.85
21
-74.534
0
LINE
8
BLACK
6
CONTINUOUS
10
149.85
20
-74.534
11
149.844
21
-74.475
0
LINE
8
BLACK
6
CONTINUOUS
10
149.844
20
-74.475
11
149.85
21
-74.416
0
LINE
8
BLACK
6
CONTINUOUS
10
149.85
20
-74.416
11
149.85
21
-63.9471
0
LINE
8
BLACK
6
CONTINUOUS
10
149.85
20
-63.9471
11
149.003
21
-63.1
0
LINE
8
BLACK
6
CONTINUOUS
10
149.003
20
-63.1
11
139.477
21
-63.1
0
LINE
8
BLACK
6
CONTINUOUS
10
172
20
-64.4
11
172
21
-73.275
0
LINE
8
BLACK
6
CONTINUOUS
10
172
20
-73.275
11
190.2
21
-73.275
0
LINE
8
BLACK
6
CONTINUOUS
10
190.2
20
-73.275
11
190.2
21
-64.4
0
LINE
8
BLACK
6
CONTINUOUS
10
190.2
20
-64.4
11
178.684
21
-64.4
0
LINE
8
BLACK
6
CONTINUOUS
10
178.684
20
-64.4
11
178.625
21
-64.4058
0
LINE
8
BLACK
6
CONTINUOUS
10
178.625
20
-64.4058
11
178.566
21
-64.4
0
LINE
8
BLACK
6
CONTINUOUS
10
178.566
20
-64.4
11
172
21
-64.4
0
LINE
8
BLACK
6
CONTINUOUS
10
152.25
20
-64.4
11
152.25
21
-73.275
0
LINE
8
BLACK
6
CONTINUOUS
10
152.25
20
-73.275
11
169.6
21
-73.275
0
LINE
8
BLACK
6
CONTINUOUS
10
169.6
20
-73.275
11
169.6
21
-64.4
0
LINE
8
BLACK
6
CONTINUOUS
10
169.6
20
-64.4
11
152.25
21
-64.4
0
LINE
8
BLACK
6
CONTINUOUS
10
247.156
20
-63.2
11
247.15
21
-63.259
0
LINE
8
BLACK
6
CONTINUOUS
10
247.15
20
-63.259
11
247.15
21
-66.275
0
LINE
8
BLACK
6
CONTINUOUS
10
247.15
20
-66.275
11
255.05
21
-66.275
0
LINE
8
BLACK
6
CONTINUOUS
10
255.05
20
-66.275
11
255.05
21
-62.9339
0
LINE
8
BLACK
6
CONTINUOUS
10
255.05
20
-62.9339
11
255.05
21
-62.9339
0
LINE
8
BLACK
6
CONTINUOUS
10
255.05
20
-62.9339
11
255.05
21
-50.8
0
LINE
8
BLACK
6
CONTINUOUS
10
255.05
20
-50.8
11
247.15
21
-50.8
0
LINE
8
BLACK
6
CONTINUOUS
10
247.15
20
-50.8
11
247.15
21
-63.1411
0
LINE
8
BLACK
6
CONTINUOUS
10
247.15
20
-63.1411
11
247.156
21
-63.2
0
LINE
8
BLACK
6
CONTINUOUS
10
237.075
20
-50.8
11
237.075
21
-62
0
LINE
8
BLACK
6
CONTINUOUS
10
237.075
20
-62
11
244.75
21
-62
0
LINE
8
BLACK
6
CONTINUOUS
10
244.75
20
-62
11
244.75
21
-50.8
0
LINE
8
BLACK
6
CONTINUOUS
10
244.75
20
-50.8
11
237.075
21
-50.8
0
LINE
8
BLACK
6
CONTINUOUS
10
234.675
20
-50.8
11
222.725
21
-50.8
0
LINE
8
BLACK
6
CONTINUOUS
10
222.725
20
-50.8
11
222.725
21
-62
0
LINE
8
BLACK
6
CONTINUOUS
10
222.725
20
-62
11
234.675
21
-62
0
LINE
8
BLACK
6
CONTINUOUS
10
234.675
20
-62
11
234.675
21
-50.8
0
LINE
8
BLACK
6
CONTINUOUS
10
179.825
20
-50.8
11
179.825
21
-62
0
LINE
8
BLACK
6
CONTINUOUS
10
179.825
20
-62
11
193
21
-62
0
LINE
8
BLACK
6
CONTINUOUS
10
193
20
-62
11
193
21
-50.8
0
LINE
8
BLACK
6
CONTINUOUS
10
193
20
-50.8
11
179.825
21
-50.8
0
LINE
8
BLACK
6
CONTINUOUS
10
195.4
20
-50.8
11
195.4
21
-62
0
LINE
8
BLACK
6
CONTINUOUS
10
195.4
20
-62
11
206.05
21
-62
0
LINE
8
BLACK
6
CONTINUOUS
10
206.05
20
-62
11
206.05
21
-50.8
0
LINE
8
BLACK
6
CONTINUOUS
10
206.05
20
-50.8
11
195.4
21
-50.8
0
LINE
8
BLACK
6
CONTINUOUS
10
208.45
20
-50.8
11
208.45
21
-62
0
LINE
8
BLACK
6
CONTINUOUS
10
208.45
20
-62
11
220.325
21
-62
0
LINE
8
BLACK
6
CONTINUOUS
10
220.325
20
-62
11
220.325
21
-50.8
0
LINE
8
BLACK
6
CONTINUOUS
10
220.325
20
-50.8
11
208.45
21
-50.8
0
LINE
8
BLACK
6
CONTINUOUS
10
139.45
20
-50.8
11
139.45
21
-60.7
0
LINE
8
BLACK
6
CONTINUOUS
10
139.45
20
-60.7
11
149.441
21
-60.7
0
LINE
8
BLACK
6
CONTINUOUS
10
149.441
20
-60.7
11
149.5
21
-60.6942
0
LINE
8
BLACK
6
CONTINUOUS
10
149.5
20
-60.6942
11
149.559
21
-60.7
0
LINE
8
BLACK
6
CONTINUOUS
10
149.559
20
-60.7
11
149.559
21
-60.7
0
LINE
8
BLACK
6
CONTINUOUS
10
149.559
20
-60.7
11
149.735
21
-60.7174
0
LINE
8
BLACK
6
CONTINUOUS
10
149.735
20
-60.7174
11
149.961
21
-60.786
0
LINE
8
BLACK
6
CONTINUOUS
10
149.961
20
-60.786
11
150.17
21
-60.8974
0
LINE
8
BLACK
6
CONTINUOUS
10
150.17
20
-60.8974
11
150.353
21
-61.0474
0
LINE
8
BLACK
6
CONTINUOUS
10
150.353
20
-61.0474
11
150.39
21
-61.0932
0
LINE
8
BLACK
6
CONTINUOUS
10
150.39
20
-61.0932
11
151.297
21
-62
0
LINE
8
BLACK
6
CONTINUOUS
10
151.297
20
-62
11
162.325
21
-62
0
LINE
8
BLACK
6
CONTINUOUS
10
162.325
20
-62
11
162.325
21
-50.8
0
LINE
8
BLACK
6
CONTINUOUS
10
162.325
20
-50.8
11
139.45
21
-50.8
0
LINE
8
BLACK
6
CONTINUOUS
10
168.472
20
-45.975
11
164.725
21
-49.7221
0
LINE
8
BLACK
6
CONTINUOUS
10
164.725
20
-49.7221
11
164.725
21
-62
0
LINE
8
BLACK
6
CONTINUOUS
10
164.725
20
-62
11
170.741
21
-62
0
LINE
8
BLACK
6
CONTINUOUS
10
170.741
20
-62
11
170.8
21
-61.9942
0
LINE
8
BLACK
6
CONTINUOUS
10
170.8
20
-61.9942
11
170.859
21
-62
0
LINE
8
BLACK
6
CONTINUOUS
10
170.859
20
-62
11
177.425
21
-62
0
LINE
8
BLACK
6
CONTINUOUS
10
177.425
20
-62
11
177.425
21
-49.659
0
LINE
8
BLACK
6
CONTINUOUS
10
177.425
20
-49.659
11
177.419
21
-49.6
0
LINE
8
BLACK
6
CONTINUOUS
10
177.419
20
-49.6
11
177.425
21
-49.541
0
LINE
8
BLACK
6
CONTINUOUS
10
177.425
20
-49.541
11
177.425
21
-47.4221
0
LINE
8
BLACK
6
CONTINUOUS
10
177.425
20
-47.4221
11
175.978
21
-45.975
0
LINE
8
BLACK
6
CONTINUOUS
10
175.978
20
-45.975
11
168.472
21
-45.975
  0
ENDSEC
  0
EOF
