0
SECTION
2
HEADER
9
$INSUNITS
70
4
9
$ACADVER
1
AC1014
9
$HANDSEED
5
FFFF
0
ENDSEC
0
SECTION
2
TABLES
0
TABLE
2
VPORT
5
8
100
AcDbSymbolTable
0
ENDTAB
0
TABLE
2
LTYPE
5
5
100
AcDbSymbolTable
0
LTYPE
5
14
100
AcDbSymbolTableRecord
100
AcDbLinetypeTableRecord
2
BYBLOCK
70
0
0
LTYPE
5
15
100
AcDbSymbolTableRecord
100
AcDbLinetypeTableRecord
2
BYLAYER
70
0
0
ENDTAB
0
TABLE
2
LAYER
5
2
100
AcDbSymbolTable
70
2
0
LAYER
5
50
100
AcDbSymbolTableRecord
100
AcDbLayerTableRecord
2
0
70
0
6
CONTINUOUS
0
ENDTAB
0
TABLE
2
STYLE
5
3
100
AcDbSymbolTable
70
1
0
STYLE
5
11
100
AcDbSymbolTableRecord
100
AcDbTextStyleTableRecord
2
STANDARD
70
0
0
ENDTAB
0
TABLE
2
VIEW
5
6
100
AcDbSymbolTable
70
0
0
ENDTAB
0
TABLE
2
UCS
5
7
100
AcDbSymbolTable
70
0
0
ENDTAB
0
TABLE
2
APPID
5
9
100
AcDbSymbolTable
70
2
0
APPID
5
12
100
AcDbSymbolTableRecord
100
AcDbRegAppTableRecord
2
ACAD
70
0
0
ENDTAB
0
TABLE
2
DIMSTYLE
5
A
100
AcDbSymbolTable
70
1
0
ENDTAB
0
TABLE
2
BLOCK_RECORD
5
1
100
AcDbSymbolTable
70
1
0
BLOCK_RECORD
5
1F
100
AcDbSymbolTableRecord
100
AcDbBlockTableRecord
2
*MODEL_SPACE
0
BLOCK_RECORD
5
1B
100
AcDbSymbolTableRecord
100
AcDbBlockTableRecord
2
*PAPER_SPACE
0
ENDTAB
0
ENDSEC
0
SECTION
2
BLOCKS
0
BLOCK
5
20
100
AcDbEntity
100
AcDbBlockBegin
2
*MODEL_SPACE
0
ENDBLK
5
21
100
AcDbEntity
100
AcDbBlockEnd
0
BLOCK
5
1C
100
AcDbEntity
100
AcDbBlockBegin
2
*PAPER_SPACE
0
ENDBLK
5
1D
100
AcDbEntity
100
AcDbBlockEnd
0
ENDSEC
0
SECTION
2
ENTITIES
0
LWPOLYLINE
5
100
100
AcDbEntity
8
0
100
AcDbPolyline
90
4
70
1
43
0.0
10
-6.7439995763969787
20
27.587184795744044
10
-7.7439995763969787
20
27.587184795744044
10
-7.7439995763969787
20
26.58718479574404
10
-6.7439995763969787
20
26.58718479574404
0
LWPOLYLINE
5
101
100
AcDbEntity
8
0
100
AcDbPolyline
90
4
70
1
43
0.0
10
-1.7439995763969773
20
22.587184795744044
10
-2.7439995763969769
20
22.587184795744044
10
-2.7439995763969769
20
21.58718479574404
10
-1.7439995763969773
20
21.58718479574404
0
LINE
5
102
100
AcDbEntity
8
0
100
AcDbLine
10
-2.2439995763969773
20
22.587184795744044
30
0
11
-2.2439995763969773
21
29.821600097612002
31
0
0
LINE
5
103
100
AcDbEntity
8
0
100
AcDbLine
10
-7.2439995763969778
20
26.58718479574404
30
0
11
-7.2439995763969778
21
20.254550675863314
31
0
0
LINE
5
104
100
AcDbEntity
8
0
100
AcDbLine
10
-2.4939995763969773
20
22.587184795744044
30
0
11
-1.9939995763969773
21
22.587184795744044
31
0
0
LINE
5
105
100
AcDbEntity
8
0
100
AcDbLine
10
-1.9939995763969773
20
22.587184795744044
30
0
11
-1.9939995763969773
21
27.337184795744044
31
0
0
LINE
5
106
100
AcDbEntity
8
0
100
AcDbLine
10
-1.9939995763969773
20
27.337184795744044
30
0
11
-2.4939995763969773
21
27.337184795744044
31
0
0
LINE
5
107
100
AcDbEntity
8
0
100
AcDbLine
10
-2.4939995763969773
20
27.337184795744044
30
0
11
-2.4939995763969773
21
22.587184795744044
31
0
0
LINE
5
108
100
AcDbEntity
8
0
100
AcDbLine
10
-7.4939995763969778
20
26.58718479574404
30
0
11
-6.9939995763969778
21
26.58718479574404
31
0
0
LINE
5
109
100
AcDbEntity
8
0
100
AcDbLine
10
-6.9939995763969778
20
26.58718479574404
30
0
11
-6.9939995763969778
21
21.83718479574404
31
0
0
LINE
5
110
100
AcDbEntity
8
0
100
AcDbLine
10
-6.9939995763969778
20
21.83718479574404
30
0
11
-7.4939995763969778
21
21.83718479574404
31
0
0
LINE
5
111
100
AcDbEntity
8
0
100
AcDbLine
10
-7.4939995763969778
20
21.83718479574404
30
0
11
-7.4939995763969778
21
26.58718479574404
31
0
0
LINE
5
112
100
AcDbEntity
8
0
100
AcDbLine
10
-2.4939995763969773
20
27.337184795744044
30
0
11
-5.9939995763969778
21
27.337184795744044
31
0
0
LINE
5
113
100
AcDbEntity
8
0
100
AcDbLine
10
-5.9939995763969778
20
27.337184795744044
30
0
11
-5.9939995763969778
21
26.837184795744044
31
0
0
LINE
5
114
100
AcDbEntity
8
0
100
AcDbLine
10
-5.9939995763969778
20
26.837184795744044
30
0
11
-2.4939995763969773
21
26.837184795744044
31
0
0
LINE
5
115
100
AcDbEntity
8
0
100
AcDbLine
10
-2.4939995763969773
20
26.837184795744044
30
0
11
-2.4939995763969773
21
27.337184795744044
31
0
0
LINE
5
116
100
AcDbEntity
8
0
100
AcDbLine
10
-6.9939995763969778
20
21.83718479574404
30
0
11
-3.4939995763969773
21
21.83718479574404
31
0
0
LINE
5
117
100
AcDbEntity
8
0
100
AcDbLine
10
-3.4939995763969773
20
21.83718479574404
30
0
11
-3.4939995763969773
21
22.337184795744037
31
0
0
LINE
5
118
100
AcDbEntity
8
0
100
AcDbLine
10
-3.4939995763969773
20
22.337184795744037
30
0
11
-6.9939995763969778
21
22.337184795744037
31
0
0
LINE
5
119
100
AcDbEntity
8
0
100
AcDbLine
10
-6.9939995763969778
20
22.337184795744037
30
0
11
-6.9939995763969778
21
21.83718479574404
31
0
0
LINE
5
120
100
AcDbEntity
8
0
100
AcDbLine
10
-3.4939995763969773
20
24.33718479574404
30
0
11
-6.9939995763969778
21
24.33718479574404
31
0
0
LWPOLYLINE
5
121
100
AcDbEntity
8
0
100
AcDbPolyline
90
2
70
1
43
0.0
10
-3.4939995763969773
20
24.33718479574404
10
-3.4939995763969773
20
23.837184795744044
42
0.99999999999999989
0
LINE
5
122
100
AcDbEntity
8
0
100
AcDbLine
10
-6.9939995763969778
20
23.837184795744044
30
0
11
-3.4939995763969773
21
23.837184795744044
31
0
0
LINE
5
123
100
AcDbEntity
8
0
100
AcDbLine
10
-3.4939995763969773
20
26.337184795744037
30
0
11
-6.9939995763969778
21
26.337184795744037
31
0
0
LWPOLYLINE
5
124
100
AcDbEntity
8
0
100
AcDbPolyline
90
2
70
1
43
0.0
10
-3.4939995763969773
20
26.337184795744037
10
-3.4939995763969773
20
25.83718479574404
42
0.99999999999999989
0
LINE
5
125
100
AcDbEntity
8
0
100
AcDbLine
10
-6.9939995763969778
20
25.83718479574404
30
0
11
-3.4939995763969773
21
25.83718479574404
31
0
0
LWPOLYLINE
5
126
100
AcDbEntity
8
0
100
AcDbPolyline
90
2
70
1
43
0.0
10
-5.9939995763969778
20
24.837184795744044
10
-5.9939995763969778
20
25.33718479574404
42
0.99999999999999989
0
LINE
5
127
100
AcDbEntity
8
0
100
AcDbLine
10
-2.4939995763969773
20
25.33718479574404
30
0
11
-5.9939995763969778
21
25.33718479574404
31
0
0
LINE
5
128
100
AcDbEntity
8
0
100
AcDbLine
10
-5.9939995763969778
20
24.837184795744044
30
0
11
-2.4939995763969773
21
24.837184795744044
31
0
0
LWPOLYLINE
5
129
100
AcDbEntity
8
0
100
AcDbPolyline
90
2
70
1
43
0.0
10
-5.9939995763969778
20
22.837184795744044
10
-5.9939995763969778
20
23.337184795744044
42
0.99999999999999989
0
LINE
5
130
100
AcDbEntity
8
0
100
AcDbLine
10
-2.4939995763969773
20
23.337184795744044
30
0
11
-5.9939995763969778
21
23.337184795744044
31
0
0
LINE
5
131
100
AcDbEntity
8
0
100
AcDbLine
10
-5.9939995763969778
20
22.837184795744044
30
0
11
-2.4939995763969773
21
22.837184795744044
31
0
0
ARC
5
132
100
AcDbEntity
8
0
100
AcDbCircle
10
-5.9939995763969778
20
27.087184795744044
30
0
40
0.24999999999999911
210
0
220
-0
230
1
100
AcDbArc
50
90
51
270
0
ARC
5
133
100
AcDbEntity
8
0
100
AcDbCircle
10
-3.4939995763969778
20
22.08718479574404
30
0
40
0.24999999999999911
210
0
220
0
230
1
100
AcDbArc
50
-89.999999999999901
51
89.999999999999901
0
ENDSEC
0
SECTION
2
OBJECTS
0
DICTIONARY
5
C
100
AcDbDictionary
3
ACAD_GROUP
350
D
3
ACAD_MLINESTYLE
350
17
0
DICTIONARY
5
D
100
AcDbDictionary
0
DICTIONARY
5
1A
330
C
100
AcDbDictionary
0
DICTIONARY
5
17
100
AcDbDictionary
0
ENDSEC
0
EOF
