ISO-10303-21;
HEADER;
FILE_DESCRIPTION(('FreeCAD Model'),'2;1');
FILE_NAME('Open CASCADE Shape Model','2023-02-14T09:19:14',('BT'),(''),
  'Open CASCADE STEP processor 7.6','FreeCAD','Unknown');
FILE_SCHEMA(('AUTOMOTIVE_DESIGN_CC2 { 1 2 10303 214 -1 1 5 4 }'));
ENDSEC;
DATA;
#1 = APPLICATION_PROTOCOL_DEFINITION('committee draft',
  'automotive_design',1997,#2);
#2 = APPLICATION_CONTEXT(
  'core data for automotive mechanical design processes');
#3 = SHAPE_DEFINITION_REPRESENTATION(#4,#10);
#4 = PRODUCT_DEFINITION_SHAPE('','',#5);
#5 = PRODUCT_DEFINITION('design','',#6,#9);
#6 = PRODUCT_DEFINITION_FORMATION('','',#7);
#7 = PRODUCT('Pad','Pad','',(#8));
#8 = MECHANICAL_CONTEXT('',#2,'mechanical');
#9 = PRODUCT_DEFINITION_CONTEXT('part definition',#2,'design');
#10 = ADVANCED_BREP_SHAPE_REPRESENTATION('',(#11,#15),#278);
#11 = AXIS2_PLACEMENT_3D('',#12,#13,#14);
#12 = CARTESIAN_POINT('',(0.,0.,0.));
#13 = DIRECTION('',(0.,0.,1.));
#14 = DIRECTION('',(1.,0.,-0.));
#15 = MANIFOLD_SOLID_BREP('',#16);
#16 = CLOSED_SHELL('',(#17,#34,#59,#85,#105,#130,#218,#244,#269));
#17 = ADVANCED_FACE('',(#18),#29,.F.);
#18 = FACE_BOUND('',#19,.F.);
#19 = EDGE_LOOP('',(#20));
#20 = ORIENTED_EDGE('',*,*,#21,.T.);
#21 = EDGE_CURVE('',#22,#22,#24,.T.);
#22 = VERTEX_POINT('',#23);
#23 = CARTESIAN_POINT('',(0.3,-7.347880794884E-17,-3.));
#24 = CIRCLE('',#25,0.3);
#25 = AXIS2_PLACEMENT_3D('',#26,#27,#28);
#26 = CARTESIAN_POINT('',(0.,0.,-3.));
#27 = DIRECTION('',(0.,0.,1.));
#28 = DIRECTION('',(1.,0.,0.));
#29 = PLANE('',#30);
#30 = AXIS2_PLACEMENT_3D('',#31,#32,#33);
#31 = CARTESIAN_POINT('',(-3.561042011821E-17,5.558742067634E-18,-3.));
#32 = DIRECTION('',(0.,0.,1.));
#33 = DIRECTION('',(1.,0.,0.));
#34 = ADVANCED_FACE('',(#35),#54,.T.);
#35 = FACE_BOUND('',#36,.T.);
#36 = EDGE_LOOP('',(#37,#45,#52,#53));
#37 = ORIENTED_EDGE('',*,*,#38,.T.);
#38 = EDGE_CURVE('',#22,#39,#41,.T.);
#39 = VERTEX_POINT('',#40);
#40 = CARTESIAN_POINT('',(0.3,-7.327471962526E-16,0.3));
#41 = LINE('',#42,#43);
#42 = CARTESIAN_POINT('',(0.3,0.,-3.));
#43 = VECTOR('',#44,1.);
#44 = DIRECTION('',(0.,-2.22044604925E-16,1.));
#45 = ORIENTED_EDGE('',*,*,#46,.F.);
#46 = EDGE_CURVE('',#39,#39,#47,.T.);
#47 = CIRCLE('',#48,0.3);
#48 = AXIS2_PLACEMENT_3D('',#49,#50,#51);
#49 = CARTESIAN_POINT('',(0.,-7.327471962526E-16,0.3));
#50 = DIRECTION('',(0.,-2.22044604925E-16,1.));
#51 = DIRECTION('',(1.,0.,0.));
#52 = ORIENTED_EDGE('',*,*,#38,.F.);
#53 = ORIENTED_EDGE('',*,*,#21,.T.);
#54 = CYLINDRICAL_SURFACE('',#55,0.3);
#55 = AXIS2_PLACEMENT_3D('',#56,#57,#58);
#56 = CARTESIAN_POINT('',(0.,0.,-3.));
#57 = DIRECTION('',(0.,-2.22044604925E-16,1.));
#58 = DIRECTION('',(1.,0.,0.));
#59 = ADVANCED_FACE('',(#60),#80,.T.);
#60 = FACE_BOUND('',#61,.T.);
#61 = EDGE_LOOP('',(#62,#71,#78,#79));
#62 = ORIENTED_EDGE('',*,*,#63,.T.);
#63 = EDGE_CURVE('',#39,#64,#66,.T.);
#64 = VERTEX_POINT('',#65);
#65 = CARTESIAN_POINT('',(1.,-8.881784197001E-16,1.));
#66 = CIRCLE('',#67,0.7);
#67 = AXIS2_PLACEMENT_3D('',#68,#69,#70);
#68 = CARTESIAN_POINT('',(1.,-6.225289843293E-16,0.3));
#69 = DIRECTION('',(-0.,1.,2.22044604925E-16));
#70 = DIRECTION('',(1.,0.,0.));
#71 = ORIENTED_EDGE('',*,*,#72,.T.);
#72 = EDGE_CURVE('',#64,#64,#73,.T.);
#73 = CIRCLE('',#74,0.3);
#74 = AXIS2_PLACEMENT_3D('',#75,#76,#77);
#75 = CARTESIAN_POINT('',(1.,-9.547918011776E-16,1.3));
#76 = DIRECTION('',(-1.,4.078893220341E-32,-1.836970198721E-16));
#77 = DIRECTION('',(-1.836970198721E-16,-2.22044604925E-16,1.));
#78 = ORIENTED_EDGE('',*,*,#63,.F.);
#79 = ORIENTED_EDGE('',*,*,#46,.T.);
#80 = TOROIDAL_SURFACE('',#81,1.,0.3);
#81 = AXIS2_PLACEMENT_3D('',#82,#83,#84);
#82 = CARTESIAN_POINT('',(1.,-7.327471962526E-16,0.3));
#83 = DIRECTION('',(0.,1.,2.22044604925E-16));
#84 = DIRECTION('',(1.,0.,0.));
#85 = ADVANCED_FACE('',(#86,#97),#100,.F.);
#86 = FACE_BOUND('',#87,.F.);
#87 = EDGE_LOOP('',(#88));
#88 = ORIENTED_EDGE('',*,*,#89,.T.);
#89 = EDGE_CURVE('',#90,#90,#92,.T.);
#90 = VERTEX_POINT('',#91);
#91 = CARTESIAN_POINT('',(1.,0.75,1.3));
#92 = CIRCLE('',#93,0.75);
#93 = AXIS2_PLACEMENT_3D('',#94,#95,#96);
#94 = CARTESIAN_POINT('',(1.,-7.771561172376E-17,1.3));
#95 = DIRECTION('',(1.,1.232595164408E-32,1.110223024625E-16));
#96 = DIRECTION('',(0.,1.,-1.110223024625E-16));
#97 = FACE_BOUND('',#98,.F.);
#98 = EDGE_LOOP('',(#99));
#99 = ORIENTED_EDGE('',*,*,#72,.T.);
#100 = PLANE('',#101);
#101 = AXIS2_PLACEMENT_3D('',#102,#103,#104);
#102 = CARTESIAN_POINT('',(1.,-1.281975124256E-16,1.3));
#103 = DIRECTION('',(1.,-4.93432455389E-17,8.546500828371E-17));
#104 = DIRECTION('',(-8.546500828371E-17,0.,1.));
#105 = ADVANCED_FACE('',(#106),#125,.T.);
#106 = FACE_BOUND('',#107,.F.);
#107 = EDGE_LOOP('',(#108,#116,#123,#124));
#108 = ORIENTED_EDGE('',*,*,#109,.T.);
#109 = EDGE_CURVE('',#90,#110,#112,.T.);
#110 = VERTEX_POINT('',#111);
#111 = CARTESIAN_POINT('',(9.25,0.75,1.3));
#112 = LINE('',#113,#114);
#113 = CARTESIAN_POINT('',(1.,0.75,1.3));
#114 = VECTOR('',#115,1.);
#115 = DIRECTION('',(1.,-1.110223024625E-16,1.110223024625E-16));
#116 = ORIENTED_EDGE('',*,*,#117,.T.);
#117 = EDGE_CURVE('',#110,#110,#118,.T.);
#118 = CIRCLE('',#119,0.75);
#119 = AXIS2_PLACEMENT_3D('',#120,#121,#122);
#120 = CARTESIAN_POINT('',(9.25,-9.936496070395E-16,1.3));
#121 = DIRECTION('',(1.,1.232595164408E-32,1.110223024625E-16));
#122 = DIRECTION('',(0.,1.,-1.110223024625E-16));
#123 = ORIENTED_EDGE('',*,*,#109,.F.);
#124 = ORIENTED_EDGE('',*,*,#89,.F.);
#125 = CYLINDRICAL_SURFACE('',#126,0.75);
#126 = AXIS2_PLACEMENT_3D('',#127,#128,#129);
#127 = CARTESIAN_POINT('',(1.,-7.771561172376E-17,1.3));
#128 = DIRECTION('',(-1.,-1.232595164408E-32,-1.110223024625E-16));
#129 = DIRECTION('',(0.,1.,-1.110223024625E-16));
#130 = ADVANCED_FACE('',(#131,#134),#213,.T.);
#131 = FACE_BOUND('',#132,.T.);
#132 = EDGE_LOOP('',(#133));
#133 = ORIENTED_EDGE('',*,*,#117,.T.);
#134 = FACE_BOUND('',#135,.T.);
#135 = EDGE_LOOP('',(#136));
#136 = ORIENTED_EDGE('',*,*,#137,.T.);
#137 = EDGE_CURVE('',#138,#138,#140,.T.);
#138 = VERTEX_POINT('',#139);
#139 = CARTESIAN_POINT('',(9.25,-7.766701676293E-16,0.994190175672));
#140 = B_SPLINE_CURVE_WITH_KNOTS('',8,(#141,#142,#143,#144,#145,#146,
    #147,#148,#149,#150,#151,#152,#153,#154,#155,#156,#157,#158,#159,
    #160,#161,#162,#163,#164,#165,#166,#167,#168,#169,#170,#171,#172,
    #173,#174,#175,#176,#177,#178,#179,#180,#181,#182,#183,#184,#185,
    #186,#187,#188,#189,#190,#191,#192,#193,#194,#195,#196,#197,#198,
    #199,#200,#201,#202,#203,#204,#205,#206,#207,#208,#209,#210,#211,
    #212),.UNSPECIFIED.,.T.,.F.,(9,7,7,7,7,7,7,7,7,7,9),(0.,
    7.461768753016E-02,0.102621241892,0.178652054504,0.273688989188,
    0.325695448956,0.500958995952,0.674322272546,0.726328603919,
    0.821365318353,1.),.UNSPECIFIED.);
#141 = CARTESIAN_POINT('',(9.25,-8.775980540476E-16,0.994190175672));
#142 = CARTESIAN_POINT('',(9.25,-1.758749753341E-02,0.994190175672));
#143 = CARTESIAN_POINT('',(9.25,-3.517518031427E-02,0.995378377314));
#144 = CARTESIAN_POINT('',(9.25,-5.2670245482E-02,0.99775489532));
#145 = CARTESIAN_POINT('',(9.25,-6.998021638377E-02,1.001310559835));
#146 = CARTESIAN_POINT('',(9.25,-8.701384919139E-02,1.006027240828));
#147 = CARTESIAN_POINT('',(9.25,-0.103682039518,1.01187817251));
#148 = CARTESIAN_POINT('',(9.25,-0.119898729036,1.018828277731));
#149 = CARTESIAN_POINT('',(9.25,-0.141467575687,1.029839175004));
#150 = CARTESIAN_POINT('',(9.25,-0.147278211751,1.032992625439));
#151 = CARTESIAN_POINT('',(9.25,-0.153009377665,1.03629256981));
#152 = CARTESIAN_POINT('',(9.25,-0.158656823307,1.03973659058));
#153 = CARTESIAN_POINT('',(9.25,-0.164216391051,1.043322126565));
#154 = CARTESIAN_POINT('',(9.25,-0.169684015762,1.047046472941));
#155 = CARTESIAN_POINT('',(9.25,-0.175055724804,1.050906781239));
#156 = CARTESIAN_POINT('',(9.25,-0.194641101306,1.06574197518));
#157 = CARTESIAN_POINT('',(9.25,-0.208219064816,1.077564164052));
#158 = CARTESIAN_POINT('',(9.25,-0.220983929653,1.09030688055));
#159 = CARTESIAN_POINT('',(9.25,-0.232863971447,1.103903110198));
#160 = CARTESIAN_POINT('',(9.25,-0.243793957185,1.118279358413));
#161 = CARTESIAN_POINT('',(9.25,-0.253715762031,1.133356439463));
#162 = CARTESIAN_POINT('',(9.25,-0.26257898614,1.149050265426));
#163 = CARTESIAN_POINT('',(9.25,-0.280044641727,1.185550259947));
#164 = CARTESIAN_POINT('',(9.25,-0.288028331884,1.206654240329));
#165 = CARTESIAN_POINT('',(9.25,-0.294209900601,1.228412221429));
#166 = CARTESIAN_POINT('',(9.25,-0.298527731849,1.250642615288));
#167 = CARTESIAN_POINT('',(9.25,-0.300941864975,1.273157576545));
#168 = CARTESIAN_POINT('',(9.25,-0.30143452475,1.295765978136));
#169 = CARTESIAN_POINT('',(9.25,-0.300010651428,1.318276386992));
#170 = CARTESIAN_POINT('',(9.25,-0.294885905278,1.352661348449));
#171 = CARTESIAN_POINT('',(9.25,-0.29250786497,1.364736941236));
#172 = CARTESIAN_POINT('',(9.25,-0.289568848457,1.376695963865));
#173 = CARTESIAN_POINT('',(9.25,-0.286075421788,1.388507893108));
#174 = CARTESIAN_POINT('',(9.25,-0.282036133851,1.400142681208));
#175 = CARTESIAN_POINT('',(9.25,-0.277461471746,1.411570900348));
#176 = CARTESIAN_POINT('',(9.25,-0.27236381616,1.422763887126));
#177 = CARTESIAN_POINT('',(9.25,-0.247863571709,1.470528360241));
#178 = CARTESIAN_POINT('',(9.25,-0.22318705905,1.504384764115));
#179 = CARTESIAN_POINT('',(9.25,-0.193274197499,1.534186047916));
#180 = CARTESIAN_POINT('',(9.25,-0.15890967936,1.558993175152));
#181 = CARTESIAN_POINT('',(9.25,-0.121070717233,1.578056130443));
#182 = CARTESIAN_POINT('',(9.25,-8.087417324596E-02,1.590853827609));
#183 = CARTESIAN_POINT('',(9.25,-3.951665079549E-02,1.597122918955));
#184 = CARTESIAN_POINT('',(9.25,4.265366508988E-02,1.596630775091));
#185 = CARTESIAN_POINT('',(9.25,8.348588695887E-02,1.590009977418));
#186 = CARTESIAN_POINT('',(9.25,0.12311893293,1.577015547364));
#187 = CARTESIAN_POINT('',(9.25,0.160397829299,1.55791319918));
#188 = CARTESIAN_POINT('',(9.25,0.19424601311,1.533214604332));
#189 = CARTESIAN_POINT('',(9.25,0.223721872925,1.50364970945));
#190 = CARTESIAN_POINT('',(9.25,0.248068629786,1.470128694604));
#191 = CARTESIAN_POINT('',(9.25,0.272363951101,1.422763592398));
#192 = CARTESIAN_POINT('',(9.25,0.27746158221,1.411570627885));
#193 = CARTESIAN_POINT('',(9.25,0.282036222184,1.40014243272));
#194 = CARTESIAN_POINT('',(9.25,0.286075490454,1.388507670106));
#195 = CARTESIAN_POINT('',(9.25,0.289568900025,1.376695767648));
#196 = CARTESIAN_POINT('',(9.25,0.292507902093,1.364736772887));
#197 = CARTESIAN_POINT('',(9.25,0.294885930675,1.352661208828));
#198 = CARTESIAN_POINT('',(9.25,0.300010651982,1.318276327024));
#199 = CARTESIAN_POINT('',(9.25,0.301434518078,1.295765970493));
#200 = CARTESIAN_POINT('',(9.25,0.30094186,1.273157621954));
#201 = CARTESIAN_POINT('',(9.25,0.298527737544,1.250642713138));
#202 = CARTESIAN_POINT('',(9.25,0.294209925777,1.228412369775));
#203 = CARTESIAN_POINT('',(9.25,0.288028384989,1.206654435928));
#204 = CARTESIAN_POINT('',(9.25,0.280044730648,1.185550498333));
#205 = CARTESIAN_POINT('',(9.25,0.252103518215,1.12715837334));
#206 = CARTESIAN_POINT('',(9.25,0.227785317399,1.091952675693));
#207 = CARTESIAN_POINT('',(9.25,0.19793325044,1.060812445652));
#208 = CARTESIAN_POINT('',(9.25,0.163353108392,1.034761796626));
#209 = CARTESIAN_POINT('',(9.25,0.125059919515,1.014626865751));
#210 = CARTESIAN_POINT('',(9.25,8.422131197728E-02,1.001000799574));
#211 = CARTESIAN_POINT('',(9.25,4.210643553661E-02,0.994190175672));
#212 = CARTESIAN_POINT('',(9.25,-8.775980540476E-16,0.994190175672));
#213 = PLANE('',#214);
#214 = AXIS2_PLACEMENT_3D('',#215,#216,#217);
#215 = CARTESIAN_POINT('',(9.25,-1.044131507741E-15,1.3));
#216 = DIRECTION('',(1.,-4.93432455389E-17,8.546500828371E-17));
#217 = DIRECTION('',(-8.546500828371E-17,0.,1.));
#218 = ADVANCED_FACE('',(#219),#239,.T.);
#219 = FACE_BOUND('',#220,.T.);
#220 = EDGE_LOOP('',(#221,#222,#231,#238));
#221 = ORIENTED_EDGE('',*,*,#137,.F.);
#222 = ORIENTED_EDGE('',*,*,#223,.T.);
#223 = EDGE_CURVE('',#138,#224,#226,.T.);
#224 = VERTEX_POINT('',#225);
#225 = CARTESIAN_POINT('',(9.86,-7.327471962526E-16,0.3));
#226 = CIRCLE('',#227,0.7);
#227 = AXIS2_PLACEMENT_3D('',#228,#229,#230);
#228 = CARTESIAN_POINT('',(9.16,-6.225289843293E-16,0.3));
#229 = DIRECTION('',(-0.,1.,2.22044604925E-16));
#230 = DIRECTION('',(1.,0.,0.));
#231 = ORIENTED_EDGE('',*,*,#232,.T.);
#232 = EDGE_CURVE('',#224,#224,#233,.T.);
#233 = CIRCLE('',#234,0.3);
#234 = AXIS2_PLACEMENT_3D('',#235,#236,#237);
#235 = CARTESIAN_POINT('',(10.16,-7.327471962526E-16,0.3));
#236 = DIRECTION('',(-2.449293598295E-16,-2.22044604925E-16,1.));
#237 = DIRECTION('',(1.,-5.438524293788E-32,2.449293598295E-16));
#238 = ORIENTED_EDGE('',*,*,#223,.F.);
#239 = TOROIDAL_SURFACE('',#240,1.,0.3);
#240 = AXIS2_PLACEMENT_3D('',#241,#242,#243);
#241 = CARTESIAN_POINT('',(9.16,-7.327471962526E-16,0.3));
#242 = DIRECTION('',(0.,1.,2.22044604925E-16));
#243 = DIRECTION('',(1.,0.,0.));
#244 = ADVANCED_FACE('',(#245),#264,.T.);
#245 = FACE_BOUND('',#246,.T.);
#246 = EDGE_LOOP('',(#247,#255,#262,#263));
#247 = ORIENTED_EDGE('',*,*,#248,.T.);
#248 = EDGE_CURVE('',#224,#249,#251,.T.);
#249 = VERTEX_POINT('',#250);
#250 = CARTESIAN_POINT('',(9.86,-7.347880794884E-17,-3.));
#251 = LINE('',#252,#253);
#252 = CARTESIAN_POINT('',(9.86,-7.327471962526E-16,0.3));
#253 = VECTOR('',#254,1.);
#254 = DIRECTION('',(0.,2.22044604925E-16,-1.));
#255 = ORIENTED_EDGE('',*,*,#256,.F.);
#256 = EDGE_CURVE('',#249,#249,#257,.T.);
#257 = CIRCLE('',#258,0.3);
#258 = AXIS2_PLACEMENT_3D('',#259,#260,#261);
#259 = CARTESIAN_POINT('',(10.16,0.,-3.));
#260 = DIRECTION('',(1.224646799147E-16,4.440892098501E-16,-1.));
#261 = DIRECTION('',(-1.,2.719262146894E-32,-1.224646799147E-16));
#262 = ORIENTED_EDGE('',*,*,#248,.F.);
#263 = ORIENTED_EDGE('',*,*,#232,.F.);
#264 = CYLINDRICAL_SURFACE('',#265,0.3);
#265 = AXIS2_PLACEMENT_3D('',#266,#267,#268);
#266 = CARTESIAN_POINT('',(10.16,-7.327471962526E-16,0.3));
#267 = DIRECTION('',(0.,2.22044604925E-16,-1.));
#268 = DIRECTION('',(-1.,0.,0.));
#269 = ADVANCED_FACE('',(#270),#273,.T.);
#270 = FACE_BOUND('',#271,.T.);
#271 = EDGE_LOOP('',(#272));
#272 = ORIENTED_EDGE('',*,*,#256,.T.);
#273 = PLANE('',#274);
#274 = AXIS2_PLACEMENT_3D('',#275,#276,#277);
#275 = CARTESIAN_POINT('',(10.16,4.116916218585E-17,-3.));
#276 = DIRECTION('',(1.224646799147E-16,4.440892098501E-16,-1.));
#277 = DIRECTION('',(0.,-1.,-4.440892098501E-16));
#278 = ( GEOMETRIC_REPRESENTATION_CONTEXT(3) 
GLOBAL_UNCERTAINTY_ASSIGNED_CONTEXT((#282)) GLOBAL_UNIT_ASSIGNED_CONTEXT
((#279,#280,#281)) REPRESENTATION_CONTEXT('Context #1',
  '3D Context with UNIT and UNCERTAINTY') );
#279 = ( LENGTH_UNIT() NAMED_UNIT(*) SI_UNIT(.MILLI.,.METRE.) );
#280 = ( NAMED_UNIT(*) PLANE_ANGLE_UNIT() SI_UNIT($,.RADIAN.) );
#281 = ( NAMED_UNIT(*) SI_UNIT($,.STERADIAN.) SOLID_ANGLE_UNIT() );
#282 = UNCERTAINTY_MEASURE_WITH_UNIT(LENGTH_MEASURE(2.E-07),#279,
  'distance_accuracy_value','confusion accuracy');
#283 = PRODUCT_TYPE('part',$,(#7));
#284 = MECHANICAL_DESIGN_GEOMETRIC_PRESENTATION_REPRESENTATION('',(#285,
    #293,#300,#307,#315,#322,#329,#336,#343),#278);
#285 = STYLED_ITEM('color',(#286),#17);
#286 = PRESENTATION_STYLE_ASSIGNMENT((#287));
#287 = SURFACE_STYLE_USAGE(.BOTH.,#288);
#288 = SURFACE_SIDE_STYLE('',(#289));
#289 = SURFACE_STYLE_FILL_AREA(#290);
#290 = FILL_AREA_STYLE('',(#291));
#291 = FILL_AREA_STYLE_COLOUR('',#292);
#292 = COLOUR_RGB('',0.800000010877,0.800000010877,0.800000010877);
#293 = STYLED_ITEM('color',(#294),#34);
#294 = PRESENTATION_STYLE_ASSIGNMENT((#295));
#295 = SURFACE_STYLE_USAGE(.BOTH.,#296);
#296 = SURFACE_SIDE_STYLE('',(#297));
#297 = SURFACE_STYLE_FILL_AREA(#298);
#298 = FILL_AREA_STYLE('',(#299));
#299 = FILL_AREA_STYLE_COLOUR('',#292);
#300 = STYLED_ITEM('color',(#301),#59);
#301 = PRESENTATION_STYLE_ASSIGNMENT((#302));
#302 = SURFACE_STYLE_USAGE(.BOTH.,#303);
#303 = SURFACE_SIDE_STYLE('',(#304));
#304 = SURFACE_STYLE_FILL_AREA(#305);
#305 = FILL_AREA_STYLE('',(#306));
#306 = FILL_AREA_STYLE_COLOUR('',#292);
#307 = STYLED_ITEM('color',(#308),#85);
#308 = PRESENTATION_STYLE_ASSIGNMENT((#309));
#309 = SURFACE_STYLE_USAGE(.BOTH.,#310);
#310 = SURFACE_SIDE_STYLE('',(#311));
#311 = SURFACE_STYLE_FILL_AREA(#312);
#312 = FILL_AREA_STYLE('',(#313));
#313 = FILL_AREA_STYLE_COLOUR('',#314);
#314 = COLOUR_RGB('',3.921568724327E-03,0.,0.);
#315 = STYLED_ITEM('color',(#316),#105);
#316 = PRESENTATION_STYLE_ASSIGNMENT((#317));
#317 = SURFACE_STYLE_USAGE(.BOTH.,#318);
#318 = SURFACE_SIDE_STYLE('',(#319));
#319 = SURFACE_STYLE_FILL_AREA(#320);
#320 = FILL_AREA_STYLE('',(#321));
#321 = FILL_AREA_STYLE_COLOUR('',#314);
#322 = STYLED_ITEM('color',(#323),#130);
#323 = PRESENTATION_STYLE_ASSIGNMENT((#324));
#324 = SURFACE_STYLE_USAGE(.BOTH.,#325);
#325 = SURFACE_SIDE_STYLE('',(#326));
#326 = SURFACE_STYLE_FILL_AREA(#327);
#327 = FILL_AREA_STYLE('',(#328));
#328 = FILL_AREA_STYLE_COLOUR('',#314);
#329 = STYLED_ITEM('color',(#330),#218);
#330 = PRESENTATION_STYLE_ASSIGNMENT((#331));
#331 = SURFACE_STYLE_USAGE(.BOTH.,#332);
#332 = SURFACE_SIDE_STYLE('',(#333));
#333 = SURFACE_STYLE_FILL_AREA(#334);
#334 = FILL_AREA_STYLE('',(#335));
#335 = FILL_AREA_STYLE_COLOUR('',#292);
#336 = STYLED_ITEM('color',(#337),#244);
#337 = PRESENTATION_STYLE_ASSIGNMENT((#338));
#338 = SURFACE_STYLE_USAGE(.BOTH.,#339);
#339 = SURFACE_SIDE_STYLE('',(#340));
#340 = SURFACE_STYLE_FILL_AREA(#341);
#341 = FILL_AREA_STYLE('',(#342));
#342 = FILL_AREA_STYLE_COLOUR('',#292);
#343 = STYLED_ITEM('color',(#344),#269);
#344 = PRESENTATION_STYLE_ASSIGNMENT((#345));
#345 = SURFACE_STYLE_USAGE(.BOTH.,#346);
#346 = SURFACE_SIDE_STYLE('',(#347));
#347 = SURFACE_STYLE_FILL_AREA(#348);
#348 = FILL_AREA_STYLE('',(#349));
#349 = FILL_AREA_STYLE_COLOUR('',#292);
ENDSEC;
END-ISO-10303-21;
