  0
SECTION
  2
HEADER
  9
$ACADVER
  1
AC1009
  0
ENDSEC
  0
SECTION
  2
ENTITIES
  0
POLYLINE
  8
PEC
 66
1
 39
0
 10
0.000000
 20
0.000000
 30
0.000000
 70
1
  0
VERTEX
  8
PEC
 39
0
 10
-12.467973
 20
-0.298300
 30
0.000000
 70
0
 42
0
  0
VERTEX
  8
PEC
 39
0
 10
-11.197973
 20
-0.298300
 30
0.000000
 70
0
 42
0
  0
VERTEX
  8
PEC
 39
0
 10
-11.197973
 20
0.298300
 30
0.000000
 70
0
 42
0
  0
VERTEX
  8
PEC
 39
0
 10
-12.467973
 20
0.298300
 30
0.000000
 70
0
 42
0
  0
SEQEND
  8
PEC
  0
POLYLINE
  8
PEC
 66
1
 39
0
 10
0.000000
 20
0.000000
 30
0.000000
 70
1
  0
VERTEX
  8
PEC
 39
0
 10
-11.197973
 20
-0.127000
 30
0.000000
 70
0
 42
0
  0
VERTEX
  8
PEC
 39
0
 10
-10.689973
 20
-0.127000
 30
0.000000
 70
0
 42
0
  0
VERTEX
  8
PEC
 39
0
 10
-10.689973
 20
0.127000
 30
0.000000
 70
0
 42
0
  0
VERTEX
  8
PEC
 39
0
 10
-11.197973
 20
0.127000
 30
0.000000
 70
0
 42
0
  0
SEQEND
  8
PEC
  0
POLYLINE
  8
PEC
 66
1
 39
0
 10
0.000000
 20
0.000000
 30
0.000000
 70
1
  0
VERTEX
  8
PEC
 39
0
 10
-10.943973
 20
0.127000
 30
0.000000
 70
0
 42
0
  0
VERTEX
  8
PEC
 39
0
 10
-10.689973
 20
0.127000
 30
0.000000
 70
0
 42
0
  0
VERTEX
  8
PEC
 39
0
 10
-10.689973
 20
8.263500
 30
0.000000
 70
0
 42
0
  0
VERTEX
  8
PEC
 39
0
 10
-10.943973
 20
8.263500
 30
0.000000
 70
0
 42
0
  0
SEQEND
  8
PEC
  0
POLYLINE
  8
PEC
 66
1
 39
0
 10
0.000000
 20
0.000000
 30
0.000000
 70
1
  0
VERTEX
  8
PEC
 39
0
 10
-10.943973
 20
-1.163500
 30
0.000000
 70
0
 42
0
  0
VERTEX
  8
PEC
 39
0
 10
-10.689973
 20
-1.163500
 30
0.000000
 70
0
 42
0
  0
VERTEX
  8
PEC
 39
0
 10
-10.689973
 20
-0.127000
 30
0.000000
 70
0
 42
0
  0
VERTEX
  8
PEC
 39
0
 10
-10.943973
 20
-0.127000
 30
0.000000
 70
0
 42
0
  0
SEQEND
  8
PEC
  0
POLYLINE
  8
PEC
 66
1
 39
0
 10
0.000000
 20
0.000000
 30
0.000000
 70
1
  0
VERTEX
  8
PEC
 39
0
 10
-10.943973
 20
-1.163500
 30
0.000000
 70
0
 42
0
  0
VERTEX
  8
PEC
 39
0
 10
-10.689973
 20
-1.417500
 30
0.000000
 70
0
 42
0
  0
VERTEX
  8
PEC
 39
0
 10
-9.673973
 20
-1.417500
 30
0.000000
 70
0
 42
0
  0
VERTEX
  8
PEC
 39
0
 10
-9.419973
 20
-1.163500
 30
0.000000
 70
0
 42
0
  0
SEQEND
  8
PEC
  0
POLYLINE
  8
PEC
 66
1
 39
0
 10
0.000000
 20
0.000000
 30
0.000000
 70
1
  0
VERTEX
  8
PEC
 39
0
 10
-9.673973
 20
-1.163500
 30
0.000000
 70
0
 42
0
  0
VERTEX
  8
PEC
 39
0
 10
-9.419973
 20
-1.163500
 30
0.000000
 70
0
 42
0
  0
VERTEX
  8
PEC
 39
0
 10
-9.419973
 20
8.236500
 30
0.000000
 70
0
 42
0
  0
VERTEX
  8
PEC
 39
0
 10
-9.673973
 20
8.236500
 30
0.000000
 70
0
 42
0
  0
SEQEND
  8
PEC
  0
POLYLINE
  8
PEC
 66
1
 39
0
 10
0.000000
 20
0.000000
 30
0.000000
 70
1
  0
VERTEX
  8
PEC
 39
0
 10
-9.673973
 20
8.236500
 30
0.000000
 70
0
 42
0
  0
VERTEX
  8
PEC
 39
0
 10
-9.419973
 20
8.236500
 30
0.000000
 70
0
 42
0
  0
VERTEX
  8
PEC
 39
0
 10
-9.419973
 20
8.490500
 30
0.000000
 70
0
 42
0
  0
VERTEX
  8
PEC
 39
0
 10
-9.673973
 20
8.490500
 30
0.000000
 70
0
 42
0
  0
SEQEND
  8
PEC
  0
POLYLINE
  8
PEC
 66
1
 39
0
 10
0.000000
 20
0.000000
 30
0.000000
 70
1
  0
VERTEX
  8
PEC
 39
0
 10
-9.019987
 20
-1.163500
 30
0.000000
 70
0
 42
0
  0
VERTEX
  8
PEC
 39
0
 10
-8.765987
 20
-1.163500
 30
0.000000
 70
0
 42
0
  0
VERTEX
  8
PEC
 39
0
 10
-8.765987
 20
8.236500
 30
0.000000
 70
0
 42
0
  0
VERTEX
  8
PEC
 39
0
 10
-9.019987
 20
8.236500
 30
0.000000
 70
0
 42
0
  0
SEQEND
  8
PEC
  0
POLYLINE
  8
PEC
 66
1
 39
0
 10
0.000000
 20
0.000000
 30
0.000000
 70
1
  0
VERTEX
  8
PEC
 39
0
 10
-9.019987
 20
-1.417500
 30
0.000000
 70
0
 42
0
  0
VERTEX
  8
PEC
 39
0
 10
-8.765987
 20
-1.417500
 30
0.000000
 70
0
 42
0
  0
VERTEX
  8
PEC
 39
0
 10
-8.765987
 20
-1.163500
 30
0.000000
 70
0
 42
0
  0
VERTEX
  8
PEC
 39
0
 10
-9.019987
 20
-1.163500
 30
0.000000
 70
0
 42
0
  0
SEQEND
  8
PEC
  0
POLYLINE
  8
PEC
 66
1
 39
0
 10
0.000000
 20
0.000000
 30
0.000000
 70
1
  0
VERTEX
  8
PEC
 39
0
 10
-7.495987
 20
8.236500
 30
0.000000
 70
0
 42
0
  0
VERTEX
  8
PEC
 39
0
 10
-7.749987
 20
8.490500
 30
0.000000
 70
0
 42
0
  0
VERTEX
  8
PEC
 39
0
 10
-8.765987
 20
8.490500
 30
0.000000
 70
0
 42
0
  0
VERTEX
  8
PEC
 39
0
 10
-9.019987
 20
8.236500
 30
0.000000
 70
0
 42
0
  0
SEQEND
  8
PEC
  0
POLYLINE
  8
PEC
 66
1
 39
0
 10
0.000000
 20
0.000000
 30
0.000000
 70
1
  0
VERTEX
  8
PEC
 39
0
 10
-7.749987
 20
-1.163500
 30
0.000000
 70
0
 42
0
  0
VERTEX
  8
PEC
 39
0
 10
-7.495987
 20
-1.163500
 30
0.000000
 70
0
 42
0
  0
VERTEX
  8
PEC
 39
0
 10
-7.495987
 20
8.236500
 30
0.000000
 70
0
 42
0
  0
VERTEX
  8
PEC
 39
0
 10
-7.749987
 20
8.236500
 30
0.000000
 70
0
 42
0
  0
SEQEND
  8
PEC
  0
POLYLINE
  8
PEC
 66
1
 39
0
 10
0.000000
 20
0.000000
 30
0.000000
 70
1
  0
VERTEX
  8
PEC
 39
0
 10
-7.749987
 20
-1.417500
 30
0.000000
 70
0
 42
0
  0
VERTEX
  8
PEC
 39
0
 10
-7.495987
 20
-1.417500
 30
0.000000
 70
0
 42
0
  0
VERTEX
  8
PEC
 39
0
 10
-7.495987
 20
-1.163500
 30
0.000000
 70
0
 42
0
  0
VERTEX
  8
PEC
 39
0
 10
-7.749987
 20
-1.163500
 30
0.000000
 70
0
 42
0
  0
SEQEND
  8
PEC
  0
POLYLINE
  8
PEC
 66
1
 39
0
 10
0.000000
 20
0.000000
 30
0.000000
 70
1
  0
VERTEX
  8
PEC
 39
0
 10
-5.471987
 20
8.236500
 30
0.000000
 70
0
 42
0
  0
VERTEX
  8
PEC
 39
0
 10
-5.725987
 20
8.236500
 30
0.000000
 70
0
 42
0
  0
VERTEX
  8
PEC
 39
0
 10
-5.725987
 20
-1.163500
 30
0.000000
 70
0
 42
0
  0
VERTEX
  8
PEC
 39
0
 10
-5.471987
 20
-1.163500
 30
0.000000
 70
0
 42
0
  0
SEQEND
  8
PEC
  0
POLYLINE
  8
PEC
 66
1
 39
0
 10
0.000000
 20
0.000000
 30
0.000000
 70
1
  0
VERTEX
  8
PEC
 39
0
 10
-5.471987
 20
8.490500
 30
0.000000
 70
0
 42
0
  0
VERTEX
  8
PEC
 39
0
 10
-5.725987
 20
8.490500
 30
0.000000
 70
0
 42
0
  0
VERTEX
  8
PEC
 39
0
 10
-5.725987
 20
8.236500
 30
0.000000
 70
0
 42
0
  0
VERTEX
  8
PEC
 39
0
 10
-5.471987
 20
8.236500
 30
0.000000
 70
0
 42
0
  0
SEQEND
  8
PEC
  0
POLYLINE
  8
PEC
 66
1
 39
0
 10
0.000000
 20
0.000000
 30
0.000000
 70
1
  0
VERTEX
  8
PEC
 39
0
 10
-6.995987
 20
-1.163500
 30
0.000000
 70
0
 42
0
  0
VERTEX
  8
PEC
 39
0
 10
-6.741987
 20
-1.417500
 30
0.000000
 70
0
 42
0
  0
VERTEX
  8
PEC
 39
0
 10
-5.725987
 20
-1.417500
 30
0.000000
 70
0
 42
0
  0
VERTEX
  8
PEC
 39
0
 10
-5.471987
 20
-1.163500
 30
0.000000
 70
0
 42
0
  0
SEQEND
  8
PEC
  0
POLYLINE
  8
PEC
 66
1
 39
0
 10
0.000000
 20
0.000000
 30
0.000000
 70
1
  0
VERTEX
  8
PEC
 39
0
 10
-6.741987
 20
8.236500
 30
0.000000
 70
0
 42
0
  0
VERTEX
  8
PEC
 39
0
 10
-6.995987
 20
8.236500
 30
0.000000
 70
0
 42
0
  0
VERTEX
  8
PEC
 39
0
 10
-6.995987
 20
-1.163500
 30
0.000000
 70
0
 42
0
  0
VERTEX
  8
PEC
 39
0
 10
-6.741987
 20
-1.163500
 30
0.000000
 70
0
 42
0
  0
SEQEND
  8
PEC
  0
POLYLINE
  8
PEC
 66
1
 39
0
 10
0.000000
 20
0.000000
 30
0.000000
 70
1
  0
VERTEX
  8
PEC
 39
0
 10
-6.741987
 20
8.490500
 30
0.000000
 70
0
 42
0
  0
VERTEX
  8
PEC
 39
0
 10
-6.995987
 20
8.490500
 30
0.000000
 70
0
 42
0
  0
VERTEX
  8
PEC
 39
0
 10
-6.995987
 20
8.236500
 30
0.000000
 70
0
 42
0
  0
VERTEX
  8
PEC
 39
0
 10
-6.741987
 20
8.236500
 30
0.000000
 70
0
 42
0
  0
SEQEND
  8
PEC
  0
POLYLINE
  8
PEC
 66
1
 39
0
 10
0.000000
 20
0.000000
 30
0.000000
 70
1
  0
VERTEX
  8
PEC
 39
0
 10
-4.971987
 20
-1.163500
 30
0.000000
 70
0
 42
0
  0
VERTEX
  8
PEC
 39
0
 10
-4.717987
 20
-1.163500
 30
0.000000
 70
0
 42
0
  0
VERTEX
  8
PEC
 39
0
 10
-4.717987
 20
8.236500
 30
0.000000
 70
0
 42
0
  0
VERTEX
  8
PEC
 39
0
 10
-4.971987
 20
8.236500
 30
0.000000
 70
0
 42
0
  0
SEQEND
  8
PEC
  0
POLYLINE
  8
PEC
 66
1
 39
0
 10
0.000000
 20
0.000000
 30
0.000000
 70
1
  0
VERTEX
  8
PEC
 39
0
 10
-4.971987
 20
-1.417500
 30
0.000000
 70
0
 42
0
  0
VERTEX
  8
PEC
 39
0
 10
-4.717987
 20
-1.417500
 30
0.000000
 70
0
 42
0
  0
VERTEX
  8
PEC
 39
0
 10
-4.717987
 20
-1.163500
 30
0.000000
 70
0
 42
0
  0
VERTEX
  8
PEC
 39
0
 10
-4.971987
 20
-1.163500
 30
0.000000
 70
0
 42
0
  0
SEQEND
  8
PEC
  0
POLYLINE
  8
PEC
 66
1
 39
0
 10
0.000000
 20
0.000000
 30
0.000000
 70
1
  0
VERTEX
  8
PEC
 39
0
 10
-3.447987
 20
8.236500
 30
0.000000
 70
0
 42
0
  0
VERTEX
  8
PEC
 39
0
 10
-3.701987
 20
8.490500
 30
0.000000
 70
0
 42
0
  0
VERTEX
  8
PEC
 39
0
 10
-4.717987
 20
8.490500
 30
0.000000
 70
0
 42
0
  0
VERTEX
  8
PEC
 39
0
 10
-4.971987
 20
8.236500
 30
0.000000
 70
0
 42
0
  0
SEQEND
  8
PEC
  0
POLYLINE
  8
PEC
 66
1
 39
0
 10
0.000000
 20
0.000000
 30
0.000000
 70
1
  0
VERTEX
  8
PEC
 39
0
 10
-3.701987
 20
-1.163500
 30
0.000000
 70
0
 42
0
  0
VERTEX
  8
PEC
 39
0
 10
-3.447987
 20
-1.163500
 30
0.000000
 70
0
 42
0
  0
VERTEX
  8
PEC
 39
0
 10
-3.447987
 20
8.236500
 30
0.000000
 70
0
 42
0
  0
VERTEX
  8
PEC
 39
0
 10
-3.701987
 20
8.236500
 30
0.000000
 70
0
 42
0
  0
SEQEND
  8
PEC
  0
POLYLINE
  8
PEC
 66
1
 39
0
 10
0.000000
 20
0.000000
 30
0.000000
 70
1
  0
VERTEX
  8
PEC
 39
0
 10
-3.701987
 20
-1.417500
 30
0.000000
 70
0
 42
0
  0
VERTEX
  8
PEC
 39
0
 10
-3.447987
 20
-1.417500
 30
0.000000
 70
0
 42
0
  0
VERTEX
  8
PEC
 39
0
 10
-3.447987
 20
-1.163500
 30
0.000000
 70
0
 42
0
  0
VERTEX
  8
PEC
 39
0
 10
-3.701987
 20
-1.163500
 30
0.000000
 70
0
 42
0
  0
SEQEND
  8
PEC
  0
POLYLINE
  8
PEC
 66
1
 39
0
 10
0.000000
 20
0.000000
 30
0.000000
 70
1
  0
VERTEX
  8
PEC
 39
0
 10
-1.270000
 20
-0.298300
 30
0.000000
 70
0
 42
0
  0
VERTEX
  8
PEC
 39
0
 10
0.000000
 20
-0.298300
 30
0.000000
 70
0
 42
0
  0
VERTEX
  8
PEC
 39
0
 10
0.000000
 20
0.298300
 30
0.000000
 70
0
 42
0
  0
VERTEX
  8
PEC
 39
0
 10
-1.270000
 20
0.298300
 30
0.000000
 70
0
 42
0
  0
SEQEND
  8
PEC
  0
POLYLINE
  8
PEC
 66
1
 39
0
 10
0.000000
 20
0.000000
 30
0.000000
 70
1
  0
VERTEX
  8
PEC
 39
0
 10
-1.778000
 20
-0.127000
 30
0.000000
 70
0
 42
0
  0
VERTEX
  8
PEC
 39
0
 10
-1.270000
 20
-0.127000
 30
0.000000
 70
0
 42
0
  0
VERTEX
  8
PEC
 39
0
 10
-1.270000
 20
0.127000
 30
0.000000
 70
0
 42
0
  0
VERTEX
  8
PEC
 39
0
 10
-1.778000
 20
0.127000
 30
0.000000
 70
0
 42
0
  0
SEQEND
  8
PEC
  0
POLYLINE
  8
PEC
 66
1
 39
0
 10
0.000000
 20
0.000000
 30
0.000000
 70
1
  0
VERTEX
  8
PEC
 39
0
 10
-1.778000
 20
0.127000
 30
0.000000
 70
0
 42
0
  0
VERTEX
  8
PEC
 39
0
 10
-1.524000
 20
0.127000
 30
0.000000
 70
0
 42
0
  0
VERTEX
  8
PEC
 39
0
 10
-1.524000
 20
8.263500
 30
0.000000
 70
0
 42
0
  0
VERTEX
  8
PEC
 39
0
 10
-1.778000
 20
8.263500
 30
0.000000
 70
0
 42
0
  0
SEQEND
  8
PEC
  0
POLYLINE
  8
PEC
 66
1
 39
0
 10
0.000000
 20
0.000000
 30
0.000000
 70
1
  0
VERTEX
  8
PEC
 39
0
 10
-1.778000
 20
-1.163500
 30
0.000000
 70
0
 42
0
  0
VERTEX
  8
PEC
 39
0
 10
-1.524000
 20
-1.163500
 30
0.000000
 70
0
 42
0
  0
VERTEX
  8
PEC
 39
0
 10
-1.524000
 20
-0.127000
 30
0.000000
 70
0
 42
0
  0
VERTEX
  8
PEC
 39
0
 10
-1.778000
 20
-0.127000
 30
0.000000
 70
0
 42
0
  0
SEQEND
  8
PEC
  0
POLYLINE
  8
PEC
 66
1
 39
0
 10
0.000000
 20
0.000000
 30
0.000000
 70
1
  0
VERTEX
  8
PEC
 39
0
 10
-1.778000
 20
-1.417500
 30
0.000000
 70
0
 42
0
  0
VERTEX
  8
PEC
 39
0
 10
-1.524000
 20
-1.163500
 30
0.000000
 70
0
 42
0
  0
VERTEX
  8
PEC
 39
0
 10
-3.048000
 20
-1.163500
 30
0.000000
 70
0
 42
0
  0
VERTEX
  8
PEC
 39
0
 10
-2.794000
 20
-1.417500
 30
0.000000
 70
0
 42
0
  0
SEQEND
  8
PEC
  0
POLYLINE
  8
PEC
 66
1
 39
0
 10
0.000000
 20
0.000000
 30
0.000000
 70
1
  0
VERTEX
  8
PEC
 39
0
 10
-3.048000
 20
-1.163500
 30
0.000000
 70
0
 42
0
  0
VERTEX
  8
PEC
 39
0
 10
-2.794000
 20
-1.163500
 30
0.000000
 70
0
 42
0
  0
VERTEX
  8
PEC
 39
0
 10
-2.794000
 20
8.236500
 30
0.000000
 70
0
 42
0
  0
VERTEX
  8
PEC
 39
0
 10
-3.048000
 20
8.236500
 30
0.000000
 70
0
 42
0
  0
SEQEND
  8
PEC
  0
POLYLINE
  8
PEC
 66
1
 39
0
 10
0.000000
 20
0.000000
 30
0.000000
 70
1
  0
VERTEX
  8
PEC
 39
0
 10
-3.048000
 20
8.236500
 30
0.000000
 70
0
 42
0
  0
VERTEX
  8
PEC
 39
0
 10
-2.794000
 20
8.236500
 30
0.000000
 70
0
 42
0
  0
VERTEX
  8
PEC
 39
0
 10
-2.794000
 20
8.490500
 30
0.000000
 70
0
 42
0
  0
VERTEX
  8
PEC
 39
0
 10
-3.048000
 20
8.490500
 30
0.000000
 70
0
 42
0
  0
SEQEND
  8
PEC
  0
POLYLINE
  8
ITERA
 66
1
 39
0
 10
0.000000
 20
0.000000
 30
0.000000
 70
1
  0
VERTEX
  8
ITERA
 39
0
 10
-12.467973
 20
-3.963500
 30
0.000000
 70
0
 42
0
  0
VERTEX
  8
ITERA
 39
0
 10
0.000000
 20
-3.963500
 30
0.000000
 70
0
 42
0
  0
VERTEX
  8
ITERA
 39
0
 10
0.000000
 20
11.036500
 30
0.000000
 70
0
 42
0
  0
VERTEX
  8
ITERA
 39
0
 10
-12.467973
 20
11.036500
 30
0.000000
 70
0
 42
0
  0
SEQEND
  8
ITERA
  0
ENDSEC
  0
EOF
