  0
SECTION
  2
HEADER
  9
$ANGBASE
  50
0.0
  9
$ANGDIR
  70
1
  9
$MEASUREMENT
  70
1
  0
ENDSEC
  0
SECTION
  2
TABLES
  0
TABLE
  2
LTYPE
  70
4
  0
LTYPE
  5
40F
  2
CONTINUOUS
  70
0
  3
Solid line
  72
65
  73
0
  40
0.0
  0
LTYPE
  5
410
  2
DASHDOT
 70
0
  3
Dash Dot ____ _ ____ _
 72
65
 73
4
 40
2.0
 49
1.25
 49
-0.25
 49
0.25
 49
-0.25
  0
LTYPE
  5
411
  2
DASHED
 70
0
  3
Dashed __ __ __ __ __
 72
65
 73
2
 40
0.75
 49
0.5
 49
-0.25
  0
LTYPE
  5
43B
  2
DOTTED
 70
0
  3
Dotted .  .  .  .
 72
65
 73
2
 40
0.2
 49
0.0
 49
-0.2
  0
ENDTAB
  0
TABLE
  2
STYLE
  70
4
  0
STYLE
  2
KICAD
  70
0
  40
0
  41
1
  42
1
  50
0
  71
0
  3
isocp.shx
  0
STYLE
  2
KICADB
  70
0
  40
0
  41
1
  42
1
  50
0
  71
0
  3
isocp.shx
  0
STYLE
  2
KICADI
  70
0
  40
0
  41
1
  42
1
  50
15
  71
0
  3
isocp.shx
  0
STYLE
  2
KICADBI
  70
0
  40
0
  41
1
  42
1
  50
15
  71
0
  3
isocp.shx
  0
ENDTAB
  0
TABLE
  2
LAYER
  70
1
  0
LAYER
  2
BLACK
  70
0
  62
7
  6
CONTINUOUS
  0
ENDTAB
  0
ENDSEC
  0
SECTION
  2
ENTITIES
0
LINE
8
BLACK
6
CONTINUOUS
10
162.431
20
-229.722
11
163.068
21
-229.986
0
LINE
8
BLACK
6
CONTINUOUS
10
163.068
20
-229.986
11
163.642
21
-230.369
0
LINE
8
BLACK
6
CONTINUOUS
10
163.642
20
-230.369
11
164.13
21
-230.857
0
LINE
8
BLACK
6
CONTINUOUS
10
164.13
20
-230.857
11
164.513
21
-231.431
0
LINE
8
BLACK
6
CONTINUOUS
10
164.513
20
-231.431
11
164.777
21
-232.068
0
LINE
8
BLACK
6
CONTINUOUS
10
164.777
20
-232.068
11
164.912
21
-232.745
0
LINE
8
BLACK
6
CONTINUOUS
10
164.912
20
-232.745
11
164.912
21
-233.435
0
LINE
8
BLACK
6
CONTINUOUS
10
164.912
20
-233.435
11
164.777
21
-234.112
0
LINE
8
BLACK
6
CONTINUOUS
10
164.777
20
-234.112
11
164.513
21
-234.749
0
LINE
8
BLACK
6
CONTINUOUS
10
164.513
20
-234.749
11
164.13
21
-235.323
0
LINE
8
BLACK
6
CONTINUOUS
10
164.13
20
-235.323
11
163.642
21
-235.811
0
LINE
8
BLACK
6
CONTINUOUS
10
163.642
20
-235.811
11
163.068
21
-236.194
0
LINE
8
BLACK
6
CONTINUOUS
10
163.068
20
-236.194
11
162.431
21
-236.458
0
LINE
8
BLACK
6
CONTINUOUS
10
162.431
20
-236.458
11
161.754
21
-236.593
0
LINE
8
BLACK
6
CONTINUOUS
10
161.754
20
-236.593
11
161.064
21
-236.593
0
LINE
8
BLACK
6
CONTINUOUS
10
161.064
20
-236.593
11
160.387
21
-236.458
0
LINE
8
BLACK
6
CONTINUOUS
10
160.387
20
-236.458
11
159.75
21
-236.194
0
LINE
8
BLACK
6
CONTINUOUS
10
159.75
20
-236.194
11
159.176
21
-235.811
0
LINE
8
BLACK
6
CONTINUOUS
10
159.176
20
-235.811
11
158.688
21
-235.323
0
LINE
8
BLACK
6
CONTINUOUS
10
158.688
20
-235.323
11
158.305
21
-234.749
0
LINE
8
BLACK
6
CONTINUOUS
10
158.305
20
-234.749
11
158.041
21
-234.112
0
LINE
8
BLACK
6
CONTINUOUS
10
158.041
20
-234.112
11
157.906
21
-233.435
0
LINE
8
BLACK
6
CONTINUOUS
10
157.906
20
-233.435
11
157.906
21
-232.745
0
LINE
8
BLACK
6
CONTINUOUS
10
157.906
20
-232.745
11
158.041
21
-232.068
0
LINE
8
BLACK
6
CONTINUOUS
10
158.041
20
-232.068
11
158.305
21
-231.431
0
LINE
8
BLACK
6
CONTINUOUS
10
158.305
20
-231.431
11
158.688
21
-230.857
0
LINE
8
BLACK
6
CONTINUOUS
10
158.688
20
-230.857
11
159.176
21
-230.369
0
LINE
8
BLACK
6
CONTINUOUS
10
159.176
20
-230.369
11
159.75
21
-229.986
0
LINE
8
BLACK
6
CONTINUOUS
10
159.75
20
-229.986
11
160.387
21
-229.722
0
LINE
8
BLACK
6
CONTINUOUS
10
160.387
20
-229.722
11
161.064
21
-229.587
0
LINE
8
BLACK
6
CONTINUOUS
10
161.064
20
-229.587
11
161.754
21
-229.587
0
LINE
8
BLACK
6
CONTINUOUS
10
161.754
20
-229.587
11
162.431
21
-229.722
0
LINE
8
BLACK
6
CONTINUOUS
10
215.575
20
-231.535
11
215.015
21
-231.535
0
LINE
8
BLACK
6
CONTINUOUS
10
215.015
20
-231.535
11
215.015
21
-231.501
0
LINE
8
BLACK
6
CONTINUOUS
10
215.015
20
-231.501
11
191.639
21
-231.501
0
LINE
8
BLACK
6
CONTINUOUS
10
191.639
20
-231.501
11
191.625
21
-231.5
0
LINE
8
BLACK
6
CONTINUOUS
10
191.625
20
-231.5
11
191.625
21
-231.5
0
LINE
8
BLACK
6
CONTINUOUS
10
191.625
20
-231.5
11
190.9
21
-231.425
0
LINE
8
BLACK
6
CONTINUOUS
10
190.9
20
-231.425
11
190.9
21
-231.125
0
LINE
8
BLACK
6
CONTINUOUS
10
190.9
20
-231.125
11
191.625
21
-231.05
0
LINE
8
BLACK
6
CONTINUOUS
10
191.625
20
-231.05
11
191.625
21
-231.05
0
LINE
8
BLACK
6
CONTINUOUS
10
191.625
20
-231.05
11
191.639
21
-231.049
0
LINE
8
BLACK
6
CONTINUOUS
10
191.639
20
-231.049
11
215.015
21
-231.049
0
LINE
8
BLACK
6
CONTINUOUS
10
215.015
20
-231.049
11
215.015
21
-231.015
0
LINE
8
BLACK
6
CONTINUOUS
10
215.015
20
-231.015
11
215.575
21
-231.015
0
LINE
8
BLACK
6
CONTINUOUS
10
215.575
20
-231.015
11
215.575
21
-231.535
0
LINE
8
BLACK
6
CONTINUOUS
10
266.002
20
-160.814
11
266
21
-160.832
0
LINE
8
BLACK
6
CONTINUOUS
10
266
20
-160.832
11
265.998
21
-160.859
0
LINE
8
BLACK
6
CONTINUOUS
10
265.998
20
-160.859
11
265.994
21
-160.869
0
LINE
8
BLACK
6
CONTINUOUS
10
265.994
20
-160.869
11
265.358
21
-164.069
0
LINE
8
BLACK
6
CONTINUOUS
10
265.358
20
-164.069
11
265.357
21
-164.08
0
LINE
8
BLACK
6
CONTINUOUS
10
265.357
20
-164.08
11
265.353
21
-164.09
0
LINE
8
BLACK
6
CONTINUOUS
10
265.353
20
-164.09
11
265.353
21
-164.09
0
LINE
8
BLACK
6
CONTINUOUS
10
265.353
20
-164.09
11
265.347
21
-164.112
0
LINE
8
BLACK
6
CONTINUOUS
10
265.347
20
-164.112
11
265.344
21
-164.122
0
LINE
8
BLACK
6
CONTINUOUS
10
265.344
20
-164.122
11
265.328
21
-164.152
0
LINE
8
BLACK
6
CONTINUOUS
10
265.328
20
-164.152
11
265.328
21
-164.152
0
LINE
8
BLACK
6
CONTINUOUS
10
265.328
20
-164.152
11
265.323
21
-164.162
0
LINE
8
BLACK
6
CONTINUOUS
10
265.323
20
-164.162
11
265.316
21
-164.17
0
LINE
8
BLACK
6
CONTINUOUS
10
265.316
20
-164.17
11
263.503
21
-166.882
0
LINE
8
BLACK
6
CONTINUOUS
10
263.503
20
-166.882
11
263.498
21
-166.892
0
LINE
8
BLACK
6
CONTINUOUS
10
263.498
20
-166.892
11
263.491
21
-166.901
0
LINE
8
BLACK
6
CONTINUOUS
10
263.491
20
-166.901
11
263.491
21
-166.901
0
LINE
8
BLACK
6
CONTINUOUS
10
263.491
20
-166.901
11
263.487
21
-166.906
0
LINE
8
BLACK
6
CONTINUOUS
10
263.487
20
-166.906
11
263.476
21
-166.918
0
LINE
8
BLACK
6
CONTINUOUS
10
263.476
20
-166.918
11
263.476
21
-166.918
0
LINE
8
BLACK
6
CONTINUOUS
10
263.476
20
-166.918
11
263.469
21
-166.927
0
LINE
8
BLACK
6
CONTINUOUS
10
263.469
20
-166.927
11
263.461
21
-166.934
0
LINE
8
BLACK
6
CONTINUOUS
10
263.461
20
-166.934
11
253.298
21
-177.097
0
LINE
8
BLACK
6
CONTINUOUS
10
253.298
20
-177.097
11
252.245
21
-178.671
0
LINE
8
BLACK
6
CONTINUOUS
10
252.245
20
-178.671
11
251.876
21
-180.528
0
LINE
8
BLACK
6
CONTINUOUS
10
251.876
20
-180.528
11
251.876
21
-187.899
0
LINE
8
BLACK
6
CONTINUOUS
10
251.876
20
-187.899
11
251.877
21
-187.91
0
LINE
8
BLACK
6
CONTINUOUS
10
251.877
20
-187.91
11
251.876
21
-187.921
0
LINE
8
BLACK
6
CONTINUOUS
10
251.876
20
-187.921
11
251.876
21
-187.921
0
LINE
8
BLACK
6
CONTINUOUS
10
251.876
20
-187.921
11
251.873
21
-187.954
0
LINE
8
BLACK
6
CONTINUOUS
10
251.873
20
-187.954
11
251.869
21
-187.965
0
LINE
8
BLACK
6
CONTINUOUS
10
251.869
20
-187.965
11
251.68
21
-188.915
0
LINE
8
BLACK
6
CONTINUOUS
10
251.68
20
-188.915
11
251.679
21
-188.926
0
LINE
8
BLACK
6
CONTINUOUS
10
251.679
20
-188.926
11
251.676
21
-188.937
0
LINE
8
BLACK
6
CONTINUOUS
10
251.676
20
-188.937
11
251.676
21
-188.937
0
LINE
8
BLACK
6
CONTINUOUS
10
251.676
20
-188.937
11
251.673
21
-188.946
0
LINE
8
BLACK
6
CONTINUOUS
10
251.673
20
-188.946
11
251.666
21
-188.969
0
LINE
8
BLACK
6
CONTINUOUS
10
251.666
20
-188.969
11
251.651
21
-188.998
0
LINE
8
BLACK
6
CONTINUOUS
10
251.651
20
-188.998
11
251.651
21
-188.998
0
LINE
8
BLACK
6
CONTINUOUS
10
251.651
20
-188.998
11
251.645
21
-189.008
0
LINE
8
BLACK
6
CONTINUOUS
10
251.645
20
-189.008
11
251.638
21
-189.017
0
LINE
8
BLACK
6
CONTINUOUS
10
251.638
20
-189.017
11
251.1
21
-189.822
0
LINE
8
BLACK
6
CONTINUOUS
10
251.1
20
-189.822
11
251.095
21
-189.832
0
LINE
8
BLACK
6
CONTINUOUS
10
251.095
20
-189.832
11
251.074
21
-189.858
0
LINE
8
BLACK
6
CONTINUOUS
10
251.074
20
-189.858
11
251.074
21
-189.858
0
LINE
8
BLACK
6
CONTINUOUS
10
251.074
20
-189.858
11
251.067
21
-189.867
0
LINE
8
BLACK
6
CONTINUOUS
10
251.067
20
-189.867
11
251.058
21
-189.874
0
LINE
8
BLACK
6
CONTINUOUS
10
251.058
20
-189.874
11
249.969
21
-190.962
0
LINE
8
BLACK
6
CONTINUOUS
10
249.969
20
-190.962
11
249.456
21
-191.73
0
LINE
8
BLACK
6
CONTINUOUS
10
249.456
20
-191.73
11
249.276
21
-192.636
0
LINE
8
BLACK
6
CONTINUOUS
10
249.276
20
-192.636
11
249.276
21
-227.953
0
LINE
8
BLACK
6
CONTINUOUS
10
249.276
20
-227.953
11
249.277
21
-227.964
0
LINE
8
BLACK
6
CONTINUOUS
10
249.277
20
-227.964
11
249.276
21
-227.976
0
LINE
8
BLACK
6
CONTINUOUS
10
249.276
20
-227.976
11
249.276
21
-227.976
0
LINE
8
BLACK
6
CONTINUOUS
10
249.276
20
-227.976
11
249.273
21
-228.009
0
LINE
8
BLACK
6
CONTINUOUS
10
249.273
20
-228.009
11
249.269
21
-228.019
0
LINE
8
BLACK
6
CONTINUOUS
10
249.269
20
-228.019
11
249.022
21
-229.261
0
LINE
8
BLACK
6
CONTINUOUS
10
249.022
20
-229.261
11
249.021
21
-229.272
0
LINE
8
BLACK
6
CONTINUOUS
10
249.021
20
-229.272
11
249.008
21
-229.314
0
LINE
8
BLACK
6
CONTINUOUS
10
249.008
20
-229.314
11
248.993
21
-229.344
0
LINE
8
BLACK
6
CONTINUOUS
10
248.993
20
-229.344
11
248.993
21
-229.344
0
LINE
8
BLACK
6
CONTINUOUS
10
248.993
20
-229.344
11
248.988
21
-229.354
0
LINE
8
BLACK
6
CONTINUOUS
10
248.988
20
-229.354
11
248.98
21
-229.362
0
LINE
8
BLACK
6
CONTINUOUS
10
248.98
20
-229.362
11
248.277
21
-230.415
0
LINE
8
BLACK
6
CONTINUOUS
10
248.277
20
-230.415
11
248.272
21
-230.424
0
LINE
8
BLACK
6
CONTINUOUS
10
248.272
20
-230.424
11
248.244
21
-230.459
0
LINE
8
BLACK
6
CONTINUOUS
10
248.244
20
-230.459
11
248.218
21
-230.48
0
LINE
8
BLACK
6
CONTINUOUS
10
248.218
20
-230.48
11
248.218
21
-230.48
0
LINE
8
BLACK
6
CONTINUOUS
10
248.218
20
-230.48
11
248.209
21
-230.487
0
LINE
8
BLACK
6
CONTINUOUS
10
248.209
20
-230.487
11
248.2
21
-230.492
0
LINE
8
BLACK
6
CONTINUOUS
10
248.2
20
-230.492
11
247.147
21
-231.195
0
LINE
8
BLACK
6
CONTINUOUS
10
247.147
20
-231.195
11
247.139
21
-231.202
0
LINE
8
BLACK
6
CONTINUOUS
10
247.139
20
-231.202
11
247.099
21
-231.223
0
LINE
8
BLACK
6
CONTINUOUS
10
247.099
20
-231.223
11
247.067
21
-231.233
0
LINE
8
BLACK
6
CONTINUOUS
10
247.067
20
-231.233
11
247.067
21
-231.233
0
LINE
8
BLACK
6
CONTINUOUS
10
247.067
20
-231.233
11
247.057
21
-231.236
0
LINE
8
BLACK
6
CONTINUOUS
10
247.057
20
-231.236
11
247.046
21
-231.237
0
LINE
8
BLACK
6
CONTINUOUS
10
247.046
20
-231.237
11
245.804
21
-231.484
0
LINE
8
BLACK
6
CONTINUOUS
10
245.804
20
-231.484
11
245.794
21
-231.488
0
LINE
8
BLACK
6
CONTINUOUS
10
245.794
20
-231.488
11
245.761
21
-231.491
0
LINE
8
BLACK
6
CONTINUOUS
10
245.761
20
-231.491
11
245.761
21
-231.491
0
LINE
8
BLACK
6
CONTINUOUS
10
245.761
20
-231.491
11
245.749
21
-231.492
0
LINE
8
BLACK
6
CONTINUOUS
10
245.749
20
-231.492
11
245.738
21
-231.491
0
LINE
8
BLACK
6
CONTINUOUS
10
245.738
20
-231.491
11
224.238
21
-231.491
0
LINE
8
BLACK
6
CONTINUOUS
10
224.238
20
-231.491
11
224.204
21
-231.488
0
LINE
8
BLACK
6
CONTINUOUS
10
224.204
20
-231.488
11
224.162
21
-231.475
0
LINE
8
BLACK
6
CONTINUOUS
10
224.162
20
-231.475
11
224.159
21
-231.473
0
LINE
8
BLACK
6
CONTINUOUS
10
224.159
20
-231.473
11
223.85
21
-231.415
0
LINE
8
BLACK
6
CONTINUOUS
10
223.85
20
-231.415
11
223.45
21
-231.415
0
LINE
8
BLACK
6
CONTINUOUS
10
223.45
20
-231.415
11
223.45
21
-231.115
0
LINE
8
BLACK
6
CONTINUOUS
10
223.45
20
-231.115
11
223.85
21
-231.115
0
LINE
8
BLACK
6
CONTINUOUS
10
223.85
20
-231.115
11
224.159
21
-231.057
0
LINE
8
BLACK
6
CONTINUOUS
10
224.159
20
-231.057
11
224.162
21
-231.055
0
LINE
8
BLACK
6
CONTINUOUS
10
224.162
20
-231.055
11
224.204
21
-231.042
0
LINE
8
BLACK
6
CONTINUOUS
10
224.204
20
-231.042
11
224.238
21
-231.039
0
LINE
8
BLACK
6
CONTINUOUS
10
224.238
20
-231.039
11
245.727
21
-231.039
0
LINE
8
BLACK
6
CONTINUOUS
10
245.727
20
-231.039
11
246.924
21
-230.801
0
LINE
8
BLACK
6
CONTINUOUS
10
246.924
20
-230.801
11
247.92
21
-230.135
0
LINE
8
BLACK
6
CONTINUOUS
10
247.92
20
-230.135
11
248.586
21
-229.139
0
LINE
8
BLACK
6
CONTINUOUS
10
248.586
20
-229.139
11
248.824
21
-227.942
0
LINE
8
BLACK
6
CONTINUOUS
10
248.824
20
-227.942
11
248.824
21
-192.625
0
LINE
8
BLACK
6
CONTINUOUS
10
248.824
20
-192.625
11
248.823
21
-192.614
0
LINE
8
BLACK
6
CONTINUOUS
10
248.823
20
-192.614
11
248.826
21
-192.581
0
LINE
8
BLACK
6
CONTINUOUS
10
248.826
20
-192.581
11
248.826
21
-192.581
0
LINE
8
BLACK
6
CONTINUOUS
10
248.826
20
-192.581
11
248.827
21
-192.57
0
LINE
8
BLACK
6
CONTINUOUS
10
248.827
20
-192.57
11
248.831
21
-192.559
0
LINE
8
BLACK
6
CONTINUOUS
10
248.831
20
-192.559
11
249.02
21
-191.609
0
LINE
8
BLACK
6
CONTINUOUS
10
249.02
20
-191.609
11
249.021
21
-191.598
0
LINE
8
BLACK
6
CONTINUOUS
10
249.021
20
-191.598
11
249.024
21
-191.587
0
LINE
8
BLACK
6
CONTINUOUS
10
249.024
20
-191.587
11
249.024
21
-191.587
0
LINE
8
BLACK
6
CONTINUOUS
10
249.024
20
-191.587
11
249.034
21
-191.555
0
LINE
8
BLACK
6
CONTINUOUS
10
249.034
20
-191.555
11
249.034
21
-191.555
0
LINE
8
BLACK
6
CONTINUOUS
10
249.034
20
-191.555
11
249.049
21
-191.526
0
LINE
8
BLACK
6
CONTINUOUS
10
249.049
20
-191.526
11
249.055
21
-191.516
0
LINE
8
BLACK
6
CONTINUOUS
10
249.055
20
-191.516
11
249.062
21
-191.507
0
LINE
8
BLACK
6
CONTINUOUS
10
249.062
20
-191.507
11
249.6
21
-190.702
0
LINE
8
BLACK
6
CONTINUOUS
10
249.6
20
-190.702
11
249.605
21
-190.692
0
LINE
8
BLACK
6
CONTINUOUS
10
249.605
20
-190.692
11
249.612
21
-190.683
0
LINE
8
BLACK
6
CONTINUOUS
10
249.612
20
-190.683
11
249.633
21
-190.658
0
LINE
8
BLACK
6
CONTINUOUS
10
249.633
20
-190.658
11
249.642
21
-190.651
0
LINE
8
BLACK
6
CONTINUOUS
10
249.642
20
-190.651
11
250.731
21
-189.562
0
LINE
8
BLACK
6
CONTINUOUS
10
250.731
20
-189.562
11
251.244
21
-188.794
0
LINE
8
BLACK
6
CONTINUOUS
10
251.244
20
-188.794
11
251.424
21
-187.888
0
LINE
8
BLACK
6
CONTINUOUS
10
251.424
20
-187.888
11
251.424
21
-180.519
0
LINE
8
BLACK
6
CONTINUOUS
10
251.424
20
-180.519
11
251.424
21
-180.519
0
LINE
8
BLACK
6
CONTINUOUS
10
251.424
20
-180.519
11
251.424
21
-180.517
0
LINE
8
BLACK
6
CONTINUOUS
10
251.424
20
-180.517
11
251.423
21
-180.506
0
LINE
8
BLACK
6
CONTINUOUS
10
251.423
20
-180.506
11
251.425
21
-180.488
0
LINE
8
BLACK
6
CONTINUOUS
10
251.425
20
-180.488
11
251.427
21
-180.462
0
LINE
8
BLACK
6
CONTINUOUS
10
251.427
20
-180.462
11
251.431
21
-180.451
0
LINE
8
BLACK
6
CONTINUOUS
10
251.431
20
-180.451
11
251.809
21
-178.55
0
LINE
8
BLACK
6
CONTINUOUS
10
251.809
20
-178.55
11
251.81
21
-178.539
0
LINE
8
BLACK
6
CONTINUOUS
10
251.81
20
-178.539
11
251.813
21
-178.528
0
LINE
8
BLACK
6
CONTINUOUS
10
251.813
20
-178.528
11
251.813
21
-178.528
0
LINE
8
BLACK
6
CONTINUOUS
10
251.813
20
-178.528
11
251.823
21
-178.496
0
LINE
8
BLACK
6
CONTINUOUS
10
251.823
20
-178.496
11
251.844
21
-178.457
0
LINE
8
BLACK
6
CONTINUOUS
10
251.844
20
-178.457
11
251.851
21
-178.448
0
LINE
8
BLACK
6
CONTINUOUS
10
251.851
20
-178.448
11
252.928
21
-176.837
0
LINE
8
BLACK
6
CONTINUOUS
10
252.928
20
-176.837
11
252.933
21
-176.827
0
LINE
8
BLACK
6
CONTINUOUS
10
252.933
20
-176.827
11
252.94
21
-176.818
0
LINE
8
BLACK
6
CONTINUOUS
10
252.94
20
-176.818
11
252.94
21
-176.818
0
LINE
8
BLACK
6
CONTINUOUS
10
252.94
20
-176.818
11
252.952
21
-176.804
0
LINE
8
BLACK
6
CONTINUOUS
10
252.952
20
-176.804
11
252.954
21
-176.801
0
LINE
8
BLACK
6
CONTINUOUS
10
252.954
20
-176.801
11
252.954
21
-176.801
0
LINE
8
BLACK
6
CONTINUOUS
10
252.954
20
-176.801
11
252.962
21
-176.792
0
LINE
8
BLACK
6
CONTINUOUS
10
252.962
20
-176.792
11
252.97
21
-176.785
0
LINE
8
BLACK
6
CONTINUOUS
10
252.97
20
-176.785
11
263.133
21
-166.622
0
LINE
8
BLACK
6
CONTINUOUS
10
263.133
20
-166.622
11
264.921
21
-163.947
0
LINE
8
BLACK
6
CONTINUOUS
10
264.921
20
-163.947
11
265.549
21
-160.792
0
LINE
8
BLACK
6
CONTINUOUS
10
265.549
20
-160.792
11
265.549
21
-130.689
0
LINE
8
BLACK
6
CONTINUOUS
10
265.549
20
-130.689
11
265.236
21
-129.112
0
LINE
8
BLACK
6
CONTINUOUS
10
265.236
20
-129.112
11
264.355
21
-127.795
0
LINE
8
BLACK
6
CONTINUOUS
10
264.355
20
-127.795
11
263.038
21
-126.914
0
LINE
8
BLACK
6
CONTINUOUS
10
263.038
20
-126.914
11
261.461
21
-126.601
0
LINE
8
BLACK
6
CONTINUOUS
10
261.461
20
-126.601
11
231.084
21
-126.601
0
LINE
8
BLACK
6
CONTINUOUS
10
231.084
20
-126.601
11
231.051
21
-126.598
0
LINE
8
BLACK
6
CONTINUOUS
10
231.051
20
-126.598
11
231.008
21
-126.585
0
LINE
8
BLACK
6
CONTINUOUS
10
231.008
20
-126.585
11
230.969
21
-126.564
0
LINE
8
BLACK
6
CONTINUOUS
10
230.969
20
-126.564
11
230.934
21
-126.536
0
LINE
8
BLACK
6
CONTINUOUS
10
230.934
20
-126.536
11
230.906
21
-126.501
0
LINE
8
BLACK
6
CONTINUOUS
10
230.906
20
-126.501
11
230.885
21
-126.462
0
LINE
8
BLACK
6
CONTINUOUS
10
230.885
20
-126.462
11
230.872
21
-126.419
0
LINE
8
BLACK
6
CONTINUOUS
10
230.872
20
-126.419
11
230.868
21
-126.375
0
LINE
8
BLACK
6
CONTINUOUS
10
230.868
20
-126.375
11
230.872
21
-126.331
0
LINE
8
BLACK
6
CONTINUOUS
10
230.872
20
-126.331
11
230.885
21
-126.288
0
LINE
8
BLACK
6
CONTINUOUS
10
230.885
20
-126.288
11
230.906
21
-126.249
0
LINE
8
BLACK
6
CONTINUOUS
10
230.906
20
-126.249
11
230.934
21
-126.214
0
LINE
8
BLACK
6
CONTINUOUS
10
230.934
20
-126.214
11
230.969
21
-126.186
0
LINE
8
BLACK
6
CONTINUOUS
10
230.969
20
-126.186
11
231.008
21
-126.165
0
LINE
8
BLACK
6
CONTINUOUS
10
231.008
20
-126.165
11
231.051
21
-126.152
0
LINE
8
BLACK
6
CONTINUOUS
10
231.051
20
-126.152
11
231.084
21
-126.149
0
LINE
8
BLACK
6
CONTINUOUS
10
231.084
20
-126.149
11
261.473
21
-126.149
0
LINE
8
BLACK
6
CONTINUOUS
10
261.473
20
-126.149
11
261.484
21
-126.148
0
LINE
8
BLACK
6
CONTINUOUS
10
261.484
20
-126.148
11
261.495
21
-126.149
0
LINE
8
BLACK
6
CONTINUOUS
10
261.495
20
-126.149
11
261.495
21
-126.149
0
LINE
8
BLACK
6
CONTINUOUS
10
261.495
20
-126.149
11
261.528
21
-126.152
0
LINE
8
BLACK
6
CONTINUOUS
10
261.528
20
-126.152
11
261.539
21
-126.156
0
LINE
8
BLACK
6
CONTINUOUS
10
261.539
20
-126.156
11
263.159
21
-126.478
0
LINE
8
BLACK
6
CONTINUOUS
10
263.159
20
-126.478
11
263.17
21
-126.479
0
LINE
8
BLACK
6
CONTINUOUS
10
263.17
20
-126.479
11
263.181
21
-126.482
0
LINE
8
BLACK
6
CONTINUOUS
10
263.181
20
-126.482
11
263.181
21
-126.482
0
LINE
8
BLACK
6
CONTINUOUS
10
263.181
20
-126.482
11
263.213
21
-126.492
0
LINE
8
BLACK
6
CONTINUOUS
10
263.213
20
-126.492
11
263.252
21
-126.513
0
LINE
8
BLACK
6
CONTINUOUS
10
263.252
20
-126.513
11
263.261
21
-126.52
0
LINE
8
BLACK
6
CONTINUOUS
10
263.261
20
-126.52
11
264.634
21
-127.438
0
LINE
8
BLACK
6
CONTINUOUS
10
264.634
20
-127.438
11
264.644
21
-127.443
0
LINE
8
BLACK
6
CONTINUOUS
10
264.644
20
-127.443
11
264.653
21
-127.45
0
LINE
8
BLACK
6
CONTINUOUS
10
264.653
20
-127.45
11
264.653
21
-127.45
0
LINE
8
BLACK
6
CONTINUOUS
10
264.653
20
-127.45
11
264.679
21
-127.471
0
LINE
8
BLACK
6
CONTINUOUS
10
264.679
20
-127.471
11
264.707
21
-127.506
0
LINE
8
BLACK
6
CONTINUOUS
10
264.707
20
-127.506
11
264.712
21
-127.516
0
LINE
8
BLACK
6
CONTINUOUS
10
264.712
20
-127.516
11
265.63
21
-128.889
0
LINE
8
BLACK
6
CONTINUOUS
10
265.63
20
-128.889
11
265.637
21
-128.898
0
LINE
8
BLACK
6
CONTINUOUS
10
265.637
20
-128.898
11
265.642
21
-128.908
0
LINE
8
BLACK
6
CONTINUOUS
10
265.642
20
-128.908
11
265.642
21
-128.908
0
LINE
8
BLACK
6
CONTINUOUS
10
265.642
20
-128.908
11
265.658
21
-128.937
0
LINE
8
BLACK
6
CONTINUOUS
10
265.658
20
-128.937
11
265.658
21
-128.937
0
LINE
8
BLACK
6
CONTINUOUS
10
265.658
20
-128.937
11
265.668
21
-128.969
0
LINE
8
BLACK
6
CONTINUOUS
10
265.668
20
-128.969
11
265.668
21
-128.969
0
LINE
8
BLACK
6
CONTINUOUS
10
265.668
20
-128.969
11
265.671
21
-128.98
0
LINE
8
BLACK
6
CONTINUOUS
10
265.671
20
-128.98
11
265.672
21
-128.991
0
LINE
8
BLACK
6
CONTINUOUS
10
265.672
20
-128.991
11
265.994
21
-130.611
0
LINE
8
BLACK
6
CONTINUOUS
10
265.994
20
-130.611
11
265.998
21
-130.622
0
LINE
8
BLACK
6
CONTINUOUS
10
265.998
20
-130.622
11
266.001
21
-130.655
0
LINE
8
BLACK
6
CONTINUOUS
10
266.001
20
-130.655
11
266.001
21
-130.655
0
LINE
8
BLACK
6
CONTINUOUS
10
266.001
20
-130.655
11
266.002
21
-130.666
0
LINE
8
BLACK
6
CONTINUOUS
10
266.002
20
-130.666
11
266.001
21
-130.677
0
LINE
8
BLACK
6
CONTINUOUS
10
266.001
20
-130.677
11
266.001
21
-160.803
0
LINE
8
BLACK
6
CONTINUOUS
10
266.001
20
-160.803
11
266.002
21
-160.814
0
LINE
8
BLACK
6
CONTINUOUS
10
181.135
20
-222.274
11
186.789
21
-222.274
0
LINE
8
BLACK
6
CONTINUOUS
10
186.789
20
-222.274
11
186.8
21
-222.273
0
LINE
8
BLACK
6
CONTINUOUS
10
186.8
20
-222.273
11
186.811
21
-222.274
0
LINE
8
BLACK
6
CONTINUOUS
10
186.811
20
-222.274
11
186.811
21
-222.274
0
LINE
8
BLACK
6
CONTINUOUS
10
186.811
20
-222.274
11
186.844
21
-222.277
0
LINE
8
BLACK
6
CONTINUOUS
10
186.844
20
-222.277
11
186.855
21
-222.281
0
LINE
8
BLACK
6
CONTINUOUS
10
186.855
20
-222.281
11
187.599
21
-222.429
0
LINE
8
BLACK
6
CONTINUOUS
10
187.599
20
-222.429
11
187.61
21
-222.43
0
LINE
8
BLACK
6
CONTINUOUS
10
187.61
20
-222.43
11
187.62
21
-222.433
0
LINE
8
BLACK
6
CONTINUOUS
10
187.62
20
-222.433
11
187.62
21
-222.433
0
LINE
8
BLACK
6
CONTINUOUS
10
187.62
20
-222.433
11
187.652
21
-222.443
0
LINE
8
BLACK
6
CONTINUOUS
10
187.652
20
-222.443
11
187.652
21
-222.443
0
LINE
8
BLACK
6
CONTINUOUS
10
187.652
20
-222.443
11
187.674
21
-222.454
0
LINE
8
BLACK
6
CONTINUOUS
10
187.674
20
-222.454
11
187.691
21
-222.463
0
LINE
8
BLACK
6
CONTINUOUS
10
187.691
20
-222.463
11
187.7
21
-222.471
0
LINE
8
BLACK
6
CONTINUOUS
10
187.7
20
-222.471
11
188.331
21
-222.892
0
LINE
8
BLACK
6
CONTINUOUS
10
188.331
20
-222.892
11
188.34
21
-222.897
0
LINE
8
BLACK
6
CONTINUOUS
10
188.34
20
-222.897
11
188.349
21
-222.904
0
LINE
8
BLACK
6
CONTINUOUS
10
188.349
20
-222.904
11
188.349
21
-222.904
0
LINE
8
BLACK
6
CONTINUOUS
10
188.349
20
-222.904
11
188.375
21
-222.925
0
LINE
8
BLACK
6
CONTINUOUS
10
188.375
20
-222.925
11
188.403
21
-222.96
0
LINE
8
BLACK
6
CONTINUOUS
10
188.403
20
-222.96
11
188.408
21
-222.97
0
LINE
8
BLACK
6
CONTINUOUS
10
188.408
20
-222.97
11
188.829
21
-223.6
0
LINE
8
BLACK
6
CONTINUOUS
10
188.829
20
-223.6
11
188.837
21
-223.609
0
LINE
8
BLACK
6
CONTINUOUS
10
188.837
20
-223.609
11
188.842
21
-223.618
0
LINE
8
BLACK
6
CONTINUOUS
10
188.842
20
-223.618
11
188.842
21
-223.618
0
LINE
8
BLACK
6
CONTINUOUS
10
188.842
20
-223.618
11
188.857
21
-223.648
0
LINE
8
BLACK
6
CONTINUOUS
10
188.857
20
-223.648
11
188.87
21
-223.69
0
LINE
8
BLACK
6
CONTINUOUS
10
188.87
20
-223.69
11
188.871
21
-223.701
0
LINE
8
BLACK
6
CONTINUOUS
10
188.871
20
-223.701
11
189.019
21
-224.445
0
LINE
8
BLACK
6
CONTINUOUS
10
189.019
20
-224.445
11
189.023
21
-224.456
0
LINE
8
BLACK
6
CONTINUOUS
10
189.023
20
-224.456
11
189.026
21
-224.489
0
LINE
8
BLACK
6
CONTINUOUS
10
189.026
20
-224.489
11
189.026
21
-224.489
0
LINE
8
BLACK
6
CONTINUOUS
10
189.026
20
-224.489
11
189.027
21
-224.5
0
LINE
8
BLACK
6
CONTINUOUS
10
189.027
20
-224.5
11
189.026
21
-224.511
0
LINE
8
BLACK
6
CONTINUOUS
10
189.026
20
-224.511
11
189.026
21
-226.961
0
LINE
8
BLACK
6
CONTINUOUS
10
189.026
20
-226.961
11
189.023
21
-226.994
0
LINE
8
BLACK
6
CONTINUOUS
10
189.023
20
-226.994
11
189.01
21
-227.037
0
LINE
8
BLACK
6
CONTINUOUS
10
189.01
20
-227.037
11
188.989
21
-227.076
0
LINE
8
BLACK
6
CONTINUOUS
10
188.989
20
-227.076
11
188.961
21
-227.11
0
LINE
8
BLACK
6
CONTINUOUS
10
188.961
20
-227.11
11
188.926
21
-227.139
0
LINE
8
BLACK
6
CONTINUOUS
10
188.926
20
-227.139
11
188.887
21
-227.16
0
LINE
8
BLACK
6
CONTINUOUS
10
188.887
20
-227.16
11
188.844
21
-227.173
0
LINE
8
BLACK
6
CONTINUOUS
10
188.844
20
-227.173
11
188.8
21
-227.177
0
LINE
8
BLACK
6
CONTINUOUS
10
188.8
20
-227.177
11
188.756
21
-227.173
0
LINE
8
BLACK
6
CONTINUOUS
10
188.756
20
-227.173
11
188.713
21
-227.16
0
LINE
8
BLACK
6
CONTINUOUS
10
188.713
20
-227.16
11
188.674
21
-227.139
0
LINE
8
BLACK
6
CONTINUOUS
10
188.674
20
-227.139
11
188.639
21
-227.11
0
LINE
8
BLACK
6
CONTINUOUS
10
188.639
20
-227.11
11
188.611
21
-227.076
0
LINE
8
BLACK
6
CONTINUOUS
10
188.611
20
-227.076
11
188.59
21
-227.037
0
LINE
8
BLACK
6
CONTINUOUS
10
188.59
20
-227.037
11
188.577
21
-226.994
0
LINE
8
BLACK
6
CONTINUOUS
10
188.577
20
-226.994
11
188.574
21
-226.961
0
LINE
8
BLACK
6
CONTINUOUS
10
188.574
20
-226.961
11
188.574
21
-224.522
0
LINE
8
BLACK
6
CONTINUOUS
10
188.574
20
-224.522
11
188.435
21
-223.823
0
LINE
8
BLACK
6
CONTINUOUS
10
188.435
20
-223.823
11
188.051
21
-223.249
0
LINE
8
BLACK
6
CONTINUOUS
10
188.051
20
-223.249
11
187.477
21
-222.865
0
LINE
8
BLACK
6
CONTINUOUS
10
187.477
20
-222.865
11
186.778
21
-222.726
0
LINE
8
BLACK
6
CONTINUOUS
10
186.778
20
-222.726
11
181.135
21
-222.726
0
LINE
8
BLACK
6
CONTINUOUS
10
181.135
20
-222.726
11
181.135
21
-222.735
0
LINE
8
BLACK
6
CONTINUOUS
10
181.135
20
-222.735
11
180.575
21
-222.735
0
LINE
8
BLACK
6
CONTINUOUS
10
180.575
20
-222.735
11
180.575
21
-222.215
0
LINE
8
BLACK
6
CONTINUOUS
10
180.575
20
-222.215
11
181.135
21
-222.215
0
LINE
8
BLACK
6
CONTINUOUS
10
181.135
20
-222.215
11
181.135
21
-222.274
0
LINE
8
BLACK
6
CONTINUOUS
10
141.925
20
-225.675
11
137.025
21
-225.675
0
LINE
8
BLACK
6
CONTINUOUS
10
137.025
20
-225.675
11
137.025
21
-222.91
0
LINE
8
BLACK
6
CONTINUOUS
10
137.025
20
-222.91
11
141.925
21
-222.91
0
LINE
8
BLACK
6
CONTINUOUS
10
141.925
20
-222.91
11
141.925
21
-225.675
0
LINE
8
BLACK
6
CONTINUOUS
10
194.892
20
-223.185
11
195.022
21
-223.239
0
LINE
8
BLACK
6
CONTINUOUS
10
195.022
20
-223.239
11
195.14
21
-223.317
0
LINE
8
BLACK
6
CONTINUOUS
10
195.14
20
-223.317
11
195.24
21
-223.417
0
LINE
8
BLACK
6
CONTINUOUS
10
195.24
20
-223.417
11
195.318
21
-223.535
0
LINE
8
BLACK
6
CONTINUOUS
10
195.318
20
-223.535
11
195.372
21
-223.665
0
LINE
8
BLACK
6
CONTINUOUS
10
195.372
20
-223.665
11
195.4
21
-223.803
0
LINE
8
BLACK
6
CONTINUOUS
10
195.4
20
-223.803
11
195.4
21
-223.945
0
LINE
8
BLACK
6
CONTINUOUS
10
195.4
20
-223.945
11
195.372
21
-224.083
0
LINE
8
BLACK
6
CONTINUOUS
10
195.372
20
-224.083
11
195.318
21
-224.213
0
LINE
8
BLACK
6
CONTINUOUS
10
195.318
20
-224.213
11
195.24
21
-224.331
0
LINE
8
BLACK
6
CONTINUOUS
10
195.24
20
-224.331
11
195.14
21
-224.431
0
LINE
8
BLACK
6
CONTINUOUS
10
195.14
20
-224.431
11
195.022
21
-224.509
0
LINE
8
BLACK
6
CONTINUOUS
10
195.022
20
-224.509
11
194.892
21
-224.563
0
LINE
8
BLACK
6
CONTINUOUS
10
194.892
20
-224.563
11
194.754
21
-224.591
0
LINE
8
BLACK
6
CONTINUOUS
10
194.754
20
-224.591
11
194.612
21
-224.591
0
LINE
8
BLACK
6
CONTINUOUS
10
194.612
20
-224.591
11
194.474
21
-224.563
0
LINE
8
BLACK
6
CONTINUOUS
10
194.474
20
-224.563
11
194.344
21
-224.509
0
LINE
8
BLACK
6
CONTINUOUS
10
194.344
20
-224.509
11
194.226
21
-224.431
0
LINE
8
BLACK
6
CONTINUOUS
10
194.226
20
-224.431
11
194.126
21
-224.331
0
LINE
8
BLACK
6
CONTINUOUS
10
194.126
20
-224.331
11
194.048
21
-224.213
0
LINE
8
BLACK
6
CONTINUOUS
10
194.048
20
-224.213
11
193.994
21
-224.083
0
LINE
8
BLACK
6
CONTINUOUS
10
193.994
20
-224.083
11
193.966
21
-223.945
0
LINE
8
BLACK
6
CONTINUOUS
10
193.966
20
-223.945
11
193.966
21
-223.803
0
LINE
8
BLACK
6
CONTINUOUS
10
193.966
20
-223.803
11
193.994
21
-223.665
0
LINE
8
BLACK
6
CONTINUOUS
10
193.994
20
-223.665
11
194.048
21
-223.535
0
LINE
8
BLACK
6
CONTINUOUS
10
194.048
20
-223.535
11
194.126
21
-223.417
0
LINE
8
BLACK
6
CONTINUOUS
10
194.126
20
-223.417
11
194.226
21
-223.317
0
LINE
8
BLACK
6
CONTINUOUS
10
194.226
20
-223.317
11
194.344
21
-223.239
0
LINE
8
BLACK
6
CONTINUOUS
10
194.344
20
-223.239
11
194.474
21
-223.185
0
LINE
8
BLACK
6
CONTINUOUS
10
194.474
20
-223.185
11
194.612
21
-223.157
0
LINE
8
BLACK
6
CONTINUOUS
10
194.612
20
-223.157
11
194.754
21
-223.157
0
LINE
8
BLACK
6
CONTINUOUS
10
194.754
20
-223.157
11
194.892
21
-223.185
0
LINE
8
BLACK
6
CONTINUOUS
10
161.114
20
-222.955
11
161.163
21
-222.975
0
LINE
8
BLACK
6
CONTINUOUS
10
161.163
20
-222.975
11
161.207
21
-223.005
0
LINE
8
BLACK
6
CONTINUOUS
10
161.207
20
-223.005
11
161.245
21
-223.042
0
LINE
8
BLACK
6
CONTINUOUS
10
161.245
20
-223.042
11
161.274
21
-223.086
0
LINE
8
BLACK
6
CONTINUOUS
10
161.274
20
-223.086
11
161.294
21
-223.135
0
LINE
8
BLACK
6
CONTINUOUS
10
161.294
20
-223.135
11
161.305
21
-223.187
0
LINE
8
BLACK
6
CONTINUOUS
10
161.305
20
-223.187
11
161.305
21
-223.24
0
LINE
8
BLACK
6
CONTINUOUS
10
161.305
20
-223.24
11
161.294
21
-223.292
0
LINE
8
BLACK
6
CONTINUOUS
10
161.294
20
-223.292
11
161.274
21
-223.341
0
LINE
8
BLACK
6
CONTINUOUS
10
161.274
20
-223.341
11
161.245
21
-223.385
0
LINE
8
BLACK
6
CONTINUOUS
10
161.245
20
-223.385
11
161.207
21
-223.422
0
LINE
8
BLACK
6
CONTINUOUS
10
161.207
20
-223.422
11
161.163
21
-223.451
0
LINE
8
BLACK
6
CONTINUOUS
10
161.163
20
-223.451
11
161.114
21
-223.472
0
LINE
8
BLACK
6
CONTINUOUS
10
161.114
20
-223.472
11
161.062
21
-223.482
0
LINE
8
BLACK
6
CONTINUOUS
10
161.062
20
-223.482
11
161.009
21
-223.482
0
LINE
8
BLACK
6
CONTINUOUS
10
161.009
20
-223.482
11
160.958
21
-223.472
0
LINE
8
BLACK
6
CONTINUOUS
10
160.958
20
-223.472
11
160.909
21
-223.451
0
LINE
8
BLACK
6
CONTINUOUS
10
160.909
20
-223.451
11
160.865
21
-223.422
0
LINE
8
BLACK
6
CONTINUOUS
10
160.865
20
-223.422
11
160.827
21
-223.385
0
LINE
8
BLACK
6
CONTINUOUS
10
160.827
20
-223.385
11
160.798
21
-223.341
0
LINE
8
BLACK
6
CONTINUOUS
10
160.798
20
-223.341
11
160.778
21
-223.292
0
LINE
8
BLACK
6
CONTINUOUS
10
160.778
20
-223.292
11
160.767
21
-223.24
0
LINE
8
BLACK
6
CONTINUOUS
10
160.767
20
-223.24
11
160.767
21
-223.187
0
LINE
8
BLACK
6
CONTINUOUS
10
160.767
20
-223.187
11
160.778
21
-223.135
0
LINE
8
BLACK
6
CONTINUOUS
10
160.778
20
-223.135
11
160.798
21
-223.086
0
LINE
8
BLACK
6
CONTINUOUS
10
160.798
20
-223.086
11
160.827
21
-223.042
0
LINE
8
BLACK
6
CONTINUOUS
10
160.827
20
-223.042
11
160.865
21
-223.005
0
LINE
8
BLACK
6
CONTINUOUS
10
160.865
20
-223.005
11
160.909
21
-222.975
0
LINE
8
BLACK
6
CONTINUOUS
10
160.909
20
-222.975
11
160.958
21
-222.955
0
LINE
8
BLACK
6
CONTINUOUS
10
160.958
20
-222.955
11
161.009
21
-222.945
0
LINE
8
BLACK
6
CONTINUOUS
10
161.009
20
-222.945
11
161.062
21
-222.945
0
LINE
8
BLACK
6
CONTINUOUS
10
161.062
20
-222.945
11
161.114
21
-222.955
0
LINE
8
BLACK
6
CONTINUOUS
10
167.253
20
-222.917
11
167.302
21
-222.937
0
LINE
8
BLACK
6
CONTINUOUS
10
167.302
20
-222.937
11
167.346
21
-222.966
0
LINE
8
BLACK
6
CONTINUOUS
10
167.346
20
-222.966
11
167.384
21
-223.004
0
LINE
8
BLACK
6
CONTINUOUS
10
167.384
20
-223.004
11
167.413
21
-223.048
0
LINE
8
BLACK
6
CONTINUOUS
10
167.413
20
-223.048
11
167.433
21
-223.097
0
LINE
8
BLACK
6
CONTINUOUS
10
167.433
20
-223.097
11
167.444
21
-223.149
0
LINE
8
BLACK
6
CONTINUOUS
10
167.444
20
-223.149
11
167.444
21
-223.201
0
LINE
8
BLACK
6
CONTINUOUS
10
167.444
20
-223.201
11
167.433
21
-223.253
0
LINE
8
BLACK
6
CONTINUOUS
10
167.433
20
-223.253
11
167.413
21
-223.302
0
LINE
8
BLACK
6
CONTINUOUS
10
167.413
20
-223.302
11
167.384
21
-223.346
0
LINE
8
BLACK
6
CONTINUOUS
10
167.384
20
-223.346
11
167.346
21
-223.384
0
LINE
8
BLACK
6
CONTINUOUS
10
167.346
20
-223.384
11
167.302
21
-223.413
0
LINE
8
BLACK
6
CONTINUOUS
10
167.302
20
-223.413
11
167.253
21
-223.433
0
LINE
8
BLACK
6
CONTINUOUS
10
167.253
20
-223.433
11
167.201
21
-223.444
0
LINE
8
BLACK
6
CONTINUOUS
10
167.201
20
-223.444
11
167.149
21
-223.444
0
LINE
8
BLACK
6
CONTINUOUS
10
167.149
20
-223.444
11
167.097
21
-223.433
0
LINE
8
BLACK
6
CONTINUOUS
10
167.097
20
-223.433
11
167.048
21
-223.413
0
LINE
8
BLACK
6
CONTINUOUS
10
167.048
20
-223.413
11
167.004
21
-223.384
0
LINE
8
BLACK
6
CONTINUOUS
10
167.004
20
-223.384
11
166.966
21
-223.346
0
LINE
8
BLACK
6
CONTINUOUS
10
166.966
20
-223.346
11
166.937
21
-223.302
0
LINE
8
BLACK
6
CONTINUOUS
10
166.937
20
-223.302
11
166.917
21
-223.253
0
LINE
8
BLACK
6
CONTINUOUS
10
166.917
20
-223.253
11
166.906
21
-223.201
0
LINE
8
BLACK
6
CONTINUOUS
10
166.906
20
-223.201
11
166.906
21
-223.149
0
LINE
8
BLACK
6
CONTINUOUS
10
166.906
20
-223.149
11
166.917
21
-223.097
0
LINE
8
BLACK
6
CONTINUOUS
10
166.917
20
-223.097
11
166.937
21
-223.048
0
LINE
8
BLACK
6
CONTINUOUS
10
166.937
20
-223.048
11
166.966
21
-223.004
0
LINE
8
BLACK
6
CONTINUOUS
10
166.966
20
-223.004
11
167.004
21
-222.966
0
LINE
8
BLACK
6
CONTINUOUS
10
167.004
20
-222.966
11
167.048
21
-222.937
0
LINE
8
BLACK
6
CONTINUOUS
10
167.048
20
-222.937
11
167.097
21
-222.917
0
LINE
8
BLACK
6
CONTINUOUS
10
167.097
20
-222.917
11
167.149
21
-222.906
0
LINE
8
BLACK
6
CONTINUOUS
10
167.149
20
-222.906
11
167.201
21
-222.906
0
LINE
8
BLACK
6
CONTINUOUS
10
167.201
20
-222.906
11
167.253
21
-222.917
0
LINE
8
BLACK
6
CONTINUOUS
10
169.853
20
-222.917
11
169.902
21
-222.937
0
LINE
8
BLACK
6
CONTINUOUS
10
169.902
20
-222.937
11
169.946
21
-222.966
0
LINE
8
BLACK
6
CONTINUOUS
10
169.946
20
-222.966
11
169.984
21
-223.004
0
LINE
8
BLACK
6
CONTINUOUS
10
169.984
20
-223.004
11
170.013
21
-223.048
0
LINE
8
BLACK
6
CONTINUOUS
10
170.013
20
-223.048
11
170.033
21
-223.097
0
LINE
8
BLACK
6
CONTINUOUS
10
170.033
20
-223.097
11
170.044
21
-223.149
0
LINE
8
BLACK
6
CONTINUOUS
10
170.044
20
-223.149
11
170.044
21
-223.201
0
LINE
8
BLACK
6
CONTINUOUS
10
170.044
20
-223.201
11
170.033
21
-223.253
0
LINE
8
BLACK
6
CONTINUOUS
10
170.033
20
-223.253
11
170.013
21
-223.302
0
LINE
8
BLACK
6
CONTINUOUS
10
170.013
20
-223.302
11
169.984
21
-223.346
0
LINE
8
BLACK
6
CONTINUOUS
10
169.984
20
-223.346
11
169.946
21
-223.384
0
LINE
8
BLACK
6
CONTINUOUS
10
169.946
20
-223.384
11
169.902
21
-223.413
0
LINE
8
BLACK
6
CONTINUOUS
10
169.902
20
-223.413
11
169.853
21
-223.433
0
LINE
8
BLACK
6
CONTINUOUS
10
169.853
20
-223.433
11
169.801
21
-223.444
0
LINE
8
BLACK
6
CONTINUOUS
10
169.801
20
-223.444
11
169.749
21
-223.444
0
LINE
8
BLACK
6
CONTINUOUS
10
169.749
20
-223.444
11
169.697
21
-223.433
0
LINE
8
BLACK
6
CONTINUOUS
10
169.697
20
-223.433
11
169.648
21
-223.413
0
LINE
8
BLACK
6
CONTINUOUS
10
169.648
20
-223.413
11
169.604
21
-223.384
0
LINE
8
BLACK
6
CONTINUOUS
10
169.604
20
-223.384
11
169.566
21
-223.346
0
LINE
8
BLACK
6
CONTINUOUS
10
169.566
20
-223.346
11
169.537
21
-223.302
0
LINE
8
BLACK
6
CONTINUOUS
10
169.537
20
-223.302
11
169.517
21
-223.253
0
LINE
8
BLACK
6
CONTINUOUS
10
169.517
20
-223.253
11
169.506
21
-223.201
0
LINE
8
BLACK
6
CONTINUOUS
10
169.506
20
-223.201
11
169.506
21
-223.149
0
LINE
8
BLACK
6
CONTINUOUS
10
169.506
20
-223.149
11
169.517
21
-223.097
0
LINE
8
BLACK
6
CONTINUOUS
10
169.517
20
-223.097
11
169.537
21
-223.048
0
LINE
8
BLACK
6
CONTINUOUS
10
169.537
20
-223.048
11
169.566
21
-223.004
0
LINE
8
BLACK
6
CONTINUOUS
10
169.566
20
-223.004
11
169.604
21
-222.966
0
LINE
8
BLACK
6
CONTINUOUS
10
169.604
20
-222.966
11
169.648
21
-222.937
0
LINE
8
BLACK
6
CONTINUOUS
10
169.648
20
-222.937
11
169.697
21
-222.917
0
LINE
8
BLACK
6
CONTINUOUS
10
169.697
20
-222.917
11
169.749
21
-222.906
0
LINE
8
BLACK
6
CONTINUOUS
10
169.749
20
-222.906
11
169.801
21
-222.906
0
LINE
8
BLACK
6
CONTINUOUS
10
169.801
20
-222.906
11
169.853
21
-222.917
0
LINE
8
BLACK
6
CONTINUOUS
10
141.425
20
-222.24
11
141.925
21
-222.24
0
LINE
8
BLACK
6
CONTINUOUS
10
141.925
20
-222.24
11
141.925
21
-222.249
0
LINE
8
BLACK
6
CONTINUOUS
10
141.925
20
-222.249
11
142.931
21
-222.249
0
LINE
8
BLACK
6
CONTINUOUS
10
142.931
20
-222.249
11
142.964
21
-222.252
0
LINE
8
BLACK
6
CONTINUOUS
10
142.964
20
-222.252
11
143.007
21
-222.265
0
LINE
8
BLACK
6
CONTINUOUS
10
143.007
20
-222.265
11
143.046
21
-222.286
0
LINE
8
BLACK
6
CONTINUOUS
10
143.046
20
-222.286
11
143.081
21
-222.314
0
LINE
8
BLACK
6
CONTINUOUS
10
143.081
20
-222.314
11
143.109
21
-222.349
0
LINE
8
BLACK
6
CONTINUOUS
10
143.109
20
-222.349
11
143.13
21
-222.388
0
LINE
8
BLACK
6
CONTINUOUS
10
143.13
20
-222.388
11
143.143
21
-222.431
0
LINE
8
BLACK
6
CONTINUOUS
10
143.143
20
-222.431
11
143.147
21
-222.475
0
LINE
8
BLACK
6
CONTINUOUS
10
143.147
20
-222.475
11
143.143
21
-222.519
0
LINE
8
BLACK
6
CONTINUOUS
10
143.143
20
-222.519
11
143.13
21
-222.562
0
LINE
8
BLACK
6
CONTINUOUS
10
143.13
20
-222.562
11
143.109
21
-222.601
0
LINE
8
BLACK
6
CONTINUOUS
10
143.109
20
-222.601
11
143.081
21
-222.636
0
LINE
8
BLACK
6
CONTINUOUS
10
143.081
20
-222.636
11
143.046
21
-222.664
0
LINE
8
BLACK
6
CONTINUOUS
10
143.046
20
-222.664
11
143.007
21
-222.685
0
LINE
8
BLACK
6
CONTINUOUS
10
143.007
20
-222.685
11
142.964
21
-222.698
0
LINE
8
BLACK
6
CONTINUOUS
10
142.964
20
-222.698
11
142.931
21
-222.701
0
LINE
8
BLACK
6
CONTINUOUS
10
142.931
20
-222.701
11
141.925
21
-222.701
0
LINE
8
BLACK
6
CONTINUOUS
10
141.925
20
-222.701
11
141.925
21
-222.71
0
LINE
8
BLACK
6
CONTINUOUS
10
141.925
20
-222.71
11
140.925
21
-222.71
0
LINE
8
BLACK
6
CONTINUOUS
10
140.925
20
-222.71
11
140.925
21
-222.71
0
LINE
8
BLACK
6
CONTINUOUS
10
140.925
20
-222.71
11
137.127
21
-222.71
0
LINE
8
BLACK
6
CONTINUOUS
10
137.127
20
-222.71
11
137.127
21
-222.24
0
LINE
8
BLACK
6
CONTINUOUS
10
137.127
20
-222.24
11
141.425
21
-222.24
0
LINE
8
BLACK
6
CONTINUOUS
10
141.425
20
-222.24
11
141.425
21
-222.24
0
LINE
8
BLACK
6
CONTINUOUS
10
161.464
20
-222.253
11
161.507
21
-222.266
0
LINE
8
BLACK
6
CONTINUOUS
10
161.507
20
-222.266
11
161.546
21
-222.287
0
LINE
8
BLACK
6
CONTINUOUS
10
161.546
20
-222.287
11
161.581
21
-222.315
0
LINE
8
BLACK
6
CONTINUOUS
10
161.581
20
-222.315
11
161.609
21
-222.35
0
LINE
8
BLACK
6
CONTINUOUS
10
161.609
20
-222.35
11
161.63
21
-222.389
0
LINE
8
BLACK
6
CONTINUOUS
10
161.63
20
-222.389
11
161.643
21
-222.432
0
LINE
8
BLACK
6
CONTINUOUS
10
161.643
20
-222.432
11
161.647
21
-222.476
0
LINE
8
BLACK
6
CONTINUOUS
10
161.647
20
-222.476
11
161.643
21
-222.52
0
LINE
8
BLACK
6
CONTINUOUS
10
161.643
20
-222.52
11
161.63
21
-222.563
0
LINE
8
BLACK
6
CONTINUOUS
10
161.63
20
-222.563
11
161.609
21
-222.602
0
LINE
8
BLACK
6
CONTINUOUS
10
161.609
20
-222.602
11
161.581
21
-222.637
0
LINE
8
BLACK
6
CONTINUOUS
10
161.581
20
-222.637
11
161.546
21
-222.665
0
LINE
8
BLACK
6
CONTINUOUS
10
161.546
20
-222.665
11
161.507
21
-222.686
0
LINE
8
BLACK
6
CONTINUOUS
10
161.507
20
-222.686
11
161.464
21
-222.699
0
LINE
8
BLACK
6
CONTINUOUS
10
161.464
20
-222.699
11
161.431
21
-222.702
0
LINE
8
BLACK
6
CONTINUOUS
10
161.431
20
-222.702
11
157.165
21
-222.702
0
LINE
8
BLACK
6
CONTINUOUS
10
157.165
20
-222.702
11
157.132
21
-222.699
0
LINE
8
BLACK
6
CONTINUOUS
10
157.132
20
-222.699
11
157.089
21
-222.686
0
LINE
8
BLACK
6
CONTINUOUS
10
157.089
20
-222.686
11
157.05
21
-222.665
0
LINE
8
BLACK
6
CONTINUOUS
10
157.05
20
-222.665
11
157.015
21
-222.637
0
LINE
8
BLACK
6
CONTINUOUS
10
157.015
20
-222.637
11
156.987
21
-222.602
0
LINE
8
BLACK
6
CONTINUOUS
10
156.987
20
-222.602
11
156.966
21
-222.563
0
LINE
8
BLACK
6
CONTINUOUS
10
156.966
20
-222.563
11
156.953
21
-222.52
0
LINE
8
BLACK
6
CONTINUOUS
10
156.953
20
-222.52
11
156.949
21
-222.476
0
LINE
8
BLACK
6
CONTINUOUS
10
156.949
20
-222.476
11
156.953
21
-222.432
0
LINE
8
BLACK
6
CONTINUOUS
10
156.953
20
-222.432
11
156.966
21
-222.389
0
LINE
8
BLACK
6
CONTINUOUS
10
156.966
20
-222.389
11
156.987
21
-222.35
0
LINE
8
BLACK
6
CONTINUOUS
10
156.987
20
-222.35
11
157.015
21
-222.315
0
LINE
8
BLACK
6
CONTINUOUS
10
157.015
20
-222.315
11
157.05
21
-222.287
0
LINE
8
BLACK
6
CONTINUOUS
10
157.05
20
-222.287
11
157.089
21
-222.266
0
LINE
8
BLACK
6
CONTINUOUS
10
157.089
20
-222.266
11
157.132
21
-222.253
0
LINE
8
BLACK
6
CONTINUOUS
10
157.132
20
-222.253
11
157.165
21
-222.25
0
LINE
8
BLACK
6
CONTINUOUS
10
157.165
20
-222.25
11
161.431
21
-222.25
0
LINE
8
BLACK
6
CONTINUOUS
10
161.431
20
-222.25
11
161.464
21
-222.253
0
LINE
8
BLACK
6
CONTINUOUS
10
169.893
20
-222.681
11
169.887
21
-222.685
0
LINE
8
BLACK
6
CONTINUOUS
10
169.887
20
-222.685
11
169.844
21
-222.698
0
LINE
8
BLACK
6
CONTINUOUS
10
169.844
20
-222.698
11
169.811
21
-222.701
0
LINE
8
BLACK
6
CONTINUOUS
10
169.811
20
-222.701
11
166.349
21
-222.701
0
LINE
8
BLACK
6
CONTINUOUS
10
166.349
20
-222.701
11
166.316
21
-222.698
0
LINE
8
BLACK
6
CONTINUOUS
10
166.316
20
-222.698
11
166.273
21
-222.685
0
LINE
8
BLACK
6
CONTINUOUS
10
166.273
20
-222.685
11
166.234
21
-222.664
0
LINE
8
BLACK
6
CONTINUOUS
10
166.234
20
-222.664
11
166.199
21
-222.636
0
LINE
8
BLACK
6
CONTINUOUS
10
166.199
20
-222.636
11
166.171
21
-222.601
0
LINE
8
BLACK
6
CONTINUOUS
10
166.171
20
-222.601
11
166.15
21
-222.562
0
LINE
8
BLACK
6
CONTINUOUS
10
166.15
20
-222.562
11
166.137
21
-222.519
0
LINE
8
BLACK
6
CONTINUOUS
10
166.137
20
-222.519
11
166.133
21
-222.475
0
LINE
8
BLACK
6
CONTINUOUS
10
166.133
20
-222.475
11
166.137
21
-222.431
0
LINE
8
BLACK
6
CONTINUOUS
10
166.137
20
-222.431
11
166.15
21
-222.388
0
LINE
8
BLACK
6
CONTINUOUS
10
166.15
20
-222.388
11
166.171
21
-222.349
0
LINE
8
BLACK
6
CONTINUOUS
10
166.171
20
-222.349
11
166.199
21
-222.314
0
LINE
8
BLACK
6
CONTINUOUS
10
166.199
20
-222.314
11
166.234
21
-222.286
0
LINE
8
BLACK
6
CONTINUOUS
10
166.234
20
-222.286
11
166.273
21
-222.265
0
LINE
8
BLACK
6
CONTINUOUS
10
166.273
20
-222.265
11
166.316
21
-222.252
0
LINE
8
BLACK
6
CONTINUOUS
10
166.316
20
-222.252
11
166.349
21
-222.249
0
LINE
8
BLACK
6
CONTINUOUS
10
166.349
20
-222.249
11
169.811
21
-222.249
0
LINE
8
BLACK
6
CONTINUOUS
10
169.811
20
-222.249
11
169.844
21
-222.252
0
LINE
8
BLACK
6
CONTINUOUS
10
169.844
20
-222.252
11
169.887
21
-222.265
0
LINE
8
BLACK
6
CONTINUOUS
10
169.887
20
-222.265
11
169.893
21
-222.269
0
LINE
8
BLACK
6
CONTINUOUS
10
169.893
20
-222.269
11
170.175
21
-222.325
0
LINE
8
BLACK
6
CONTINUOUS
10
170.175
20
-222.325
11
170.975
21
-222.325
0
LINE
8
BLACK
6
CONTINUOUS
10
170.975
20
-222.325
11
170.975
21
-222.625
0
LINE
8
BLACK
6
CONTINUOUS
10
170.975
20
-222.625
11
170.175
21
-222.625
0
LINE
8
BLACK
6
CONTINUOUS
10
170.175
20
-222.625
11
169.893
21
-222.681
0
LINE
8
BLACK
6
CONTINUOUS
10
152.589
20
-222.252
11
152.632
21
-222.265
0
LINE
8
BLACK
6
CONTINUOUS
10
152.632
20
-222.265
11
152.671
21
-222.286
0
LINE
8
BLACK
6
CONTINUOUS
10
152.671
20
-222.286
11
152.706
21
-222.314
0
LINE
8
BLACK
6
CONTINUOUS
10
152.706
20
-222.314
11
152.734
21
-222.349
0
LINE
8
BLACK
6
CONTINUOUS
10
152.734
20
-222.349
11
152.755
21
-222.388
0
LINE
8
BLACK
6
CONTINUOUS
10
152.755
20
-222.388
11
152.768
21
-222.431
0
LINE
8
BLACK
6
CONTINUOUS
10
152.768
20
-222.431
11
152.772
21
-222.475
0
LINE
8
BLACK
6
CONTINUOUS
10
152.772
20
-222.475
11
152.768
21
-222.519
0
LINE
8
BLACK
6
CONTINUOUS
10
152.768
20
-222.519
11
152.755
21
-222.562
0
LINE
8
BLACK
6
CONTINUOUS
10
152.755
20
-222.562
11
152.734
21
-222.601
0
LINE
8
BLACK
6
CONTINUOUS
10
152.734
20
-222.601
11
152.706
21
-222.636
0
LINE
8
BLACK
6
CONTINUOUS
10
152.706
20
-222.636
11
152.671
21
-222.664
0
LINE
8
BLACK
6
CONTINUOUS
10
152.671
20
-222.664
11
152.632
21
-222.685
0
LINE
8
BLACK
6
CONTINUOUS
10
152.632
20
-222.685
11
152.589
21
-222.698
0
LINE
8
BLACK
6
CONTINUOUS
10
152.589
20
-222.698
11
152.556
21
-222.701
0
LINE
8
BLACK
6
CONTINUOUS
10
152.556
20
-222.701
11
148.264
21
-222.701
0
LINE
8
BLACK
6
CONTINUOUS
10
148.264
20
-222.701
11
148.231
21
-222.698
0
LINE
8
BLACK
6
CONTINUOUS
10
148.231
20
-222.698
11
148.188
21
-222.685
0
LINE
8
BLACK
6
CONTINUOUS
10
148.188
20
-222.685
11
148.149
21
-222.664
0
LINE
8
BLACK
6
CONTINUOUS
10
148.149
20
-222.664
11
148.114
21
-222.636
0
LINE
8
BLACK
6
CONTINUOUS
10
148.114
20
-222.636
11
148.086
21
-222.601
0
LINE
8
BLACK
6
CONTINUOUS
10
148.086
20
-222.601
11
148.065
21
-222.562
0
LINE
8
BLACK
6
CONTINUOUS
10
148.065
20
-222.562
11
148.052
21
-222.519
0
LINE
8
BLACK
6
CONTINUOUS
10
148.052
20
-222.519
11
148.048
21
-222.475
0
LINE
8
BLACK
6
CONTINUOUS
10
148.048
20
-222.475
11
148.052
21
-222.431
0
LINE
8
BLACK
6
CONTINUOUS
10
148.052
20
-222.431
11
148.065
21
-222.388
0
LINE
8
BLACK
6
CONTINUOUS
10
148.065
20
-222.388
11
148.086
21
-222.349
0
LINE
8
BLACK
6
CONTINUOUS
10
148.086
20
-222.349
11
148.114
21
-222.314
0
LINE
8
BLACK
6
CONTINUOUS
10
148.114
20
-222.314
11
148.149
21
-222.286
0
LINE
8
BLACK
6
CONTINUOUS
10
148.149
20
-222.286
11
148.188
21
-222.265
0
LINE
8
BLACK
6
CONTINUOUS
10
148.188
20
-222.265
11
148.231
21
-222.252
0
LINE
8
BLACK
6
CONTINUOUS
10
148.231
20
-222.252
11
148.264
21
-222.249
0
LINE
8
BLACK
6
CONTINUOUS
10
148.264
20
-222.249
11
152.556
21
-222.249
0
LINE
8
BLACK
6
CONTINUOUS
10
152.556
20
-222.249
11
152.589
21
-222.252
0
LINE
8
BLACK
6
CONTINUOUS
10
141.925
20
-222.04
11
137.025
21
-222.04
0
LINE
8
BLACK
6
CONTINUOUS
10
137.025
20
-222.04
11
137.025
21
-219.275
0
LINE
8
BLACK
6
CONTINUOUS
10
137.025
20
-219.275
11
141.925
21
-219.275
0
LINE
8
BLACK
6
CONTINUOUS
10
141.925
20
-219.275
11
141.925
21
-222.04
0
LINE
8
BLACK
6
CONTINUOUS
10
161.078
20
-221.472
11
161.127
21
-221.492
0
LINE
8
BLACK
6
CONTINUOUS
10
161.127
20
-221.492
11
161.171
21
-221.521
0
LINE
8
BLACK
6
CONTINUOUS
10
161.171
20
-221.521
11
161.209
21
-221.559
0
LINE
8
BLACK
6
CONTINUOUS
10
161.209
20
-221.559
11
161.238
21
-221.603
0
LINE
8
BLACK
6
CONTINUOUS
10
161.238
20
-221.603
11
161.258
21
-221.652
0
LINE
8
BLACK
6
CONTINUOUS
10
161.258
20
-221.652
11
161.269
21
-221.704
0
LINE
8
BLACK
6
CONTINUOUS
10
161.269
20
-221.704
11
161.269
21
-221.756
0
LINE
8
BLACK
6
CONTINUOUS
10
161.269
20
-221.756
11
161.258
21
-221.808
0
LINE
8
BLACK
6
CONTINUOUS
10
161.258
20
-221.808
11
161.238
21
-221.857
0
LINE
8
BLACK
6
CONTINUOUS
10
161.238
20
-221.857
11
161.209
21
-221.901
0
LINE
8
BLACK
6
CONTINUOUS
10
161.209
20
-221.901
11
161.171
21
-221.939
0
LINE
8
BLACK
6
CONTINUOUS
10
161.171
20
-221.939
11
161.127
21
-221.968
0
LINE
8
BLACK
6
CONTINUOUS
10
161.127
20
-221.968
11
161.078
21
-221.988
0
LINE
8
BLACK
6
CONTINUOUS
10
161.078
20
-221.988
11
161.026
21
-221.999
0
LINE
8
BLACK
6
CONTINUOUS
10
161.026
20
-221.999
11
160.974
21
-221.999
0
LINE
8
BLACK
6
CONTINUOUS
10
160.974
20
-221.999
11
160.922
21
-221.988
0
LINE
8
BLACK
6
CONTINUOUS
10
160.922
20
-221.988
11
160.873
21
-221.968
0
LINE
8
BLACK
6
CONTINUOUS
10
160.873
20
-221.968
11
160.829
21
-221.939
0
LINE
8
BLACK
6
CONTINUOUS
10
160.829
20
-221.939
11
160.791
21
-221.901
0
LINE
8
BLACK
6
CONTINUOUS
10
160.791
20
-221.901
11
160.762
21
-221.857
0
LINE
8
BLACK
6
CONTINUOUS
10
160.762
20
-221.857
11
160.742
21
-221.808
0
LINE
8
BLACK
6
CONTINUOUS
10
160.742
20
-221.808
11
160.731
21
-221.756
0
LINE
8
BLACK
6
CONTINUOUS
10
160.731
20
-221.756
11
160.731
21
-221.704
0
LINE
8
BLACK
6
CONTINUOUS
10
160.731
20
-221.704
11
160.742
21
-221.652
0
LINE
8
BLACK
6
CONTINUOUS
10
160.742
20
-221.652
11
160.762
21
-221.603
0
LINE
8
BLACK
6
CONTINUOUS
10
160.762
20
-221.603
11
160.791
21
-221.559
0
LINE
8
BLACK
6
CONTINUOUS
10
160.791
20
-221.559
11
160.829
21
-221.521
0
LINE
8
BLACK
6
CONTINUOUS
10
160.829
20
-221.521
11
160.873
21
-221.492
0
LINE
8
BLACK
6
CONTINUOUS
10
160.873
20
-221.492
11
160.922
21
-221.472
0
LINE
8
BLACK
6
CONTINUOUS
10
160.922
20
-221.472
11
160.974
21
-221.461
0
LINE
8
BLACK
6
CONTINUOUS
10
160.974
20
-221.461
11
161.026
21
-221.461
0
LINE
8
BLACK
6
CONTINUOUS
10
161.026
20
-221.461
11
161.078
21
-221.472
0
LINE
8
BLACK
6
CONTINUOUS
10
254.757
20
-199.114
11
255.213
21
-199.303
0
LINE
8
BLACK
6
CONTINUOUS
10
255.213
20
-199.303
11
255.624
21
-199.577
0
LINE
8
BLACK
6
CONTINUOUS
10
255.624
20
-199.577
11
255.973
21
-199.926
0
LINE
8
BLACK
6
CONTINUOUS
10
255.973
20
-199.926
11
256.247
21
-200.337
0
LINE
8
BLACK
6
CONTINUOUS
10
256.247
20
-200.337
11
256.436
21
-200.793
0
LINE
8
BLACK
6
CONTINUOUS
10
256.436
20
-200.793
11
256.533
21
-201.278
0
LINE
8
BLACK
6
CONTINUOUS
10
256.533
20
-201.278
11
256.533
21
-201.772
0
LINE
8
BLACK
6
CONTINUOUS
10
256.533
20
-201.772
11
256.436
21
-202.257
0
LINE
8
BLACK
6
CONTINUOUS
10
256.436
20
-202.257
11
256.247
21
-202.713
0
LINE
8
BLACK
6
CONTINUOUS
10
256.247
20
-202.713
11
255.973
21
-203.124
0
LINE
8
BLACK
6
CONTINUOUS
10
255.973
20
-203.124
11
255.624
21
-203.473
0
LINE
8
BLACK
6
CONTINUOUS
10
255.624
20
-203.473
11
255.213
21
-203.747
0
LINE
8
BLACK
6
CONTINUOUS
10
255.213
20
-203.747
11
254.757
21
-203.936
0
LINE
8
BLACK
6
CONTINUOUS
10
254.757
20
-203.936
11
254.272
21
-204.033
0
LINE
8
BLACK
6
CONTINUOUS
10
254.272
20
-204.033
11
253.778
21
-204.033
0
LINE
8
BLACK
6
CONTINUOUS
10
253.778
20
-204.033
11
253.293
21
-203.936
0
LINE
8
BLACK
6
CONTINUOUS
10
253.293
20
-203.936
11
252.837
21
-203.747
0
LINE
8
BLACK
6
CONTINUOUS
10
252.837
20
-203.747
11
252.426
21
-203.473
0
LINE
8
BLACK
6
CONTINUOUS
10
252.426
20
-203.473
11
252.077
21
-203.124
0
LINE
8
BLACK
6
CONTINUOUS
10
252.077
20
-203.124
11
251.803
21
-202.713
0
LINE
8
BLACK
6
CONTINUOUS
10
251.803
20
-202.713
11
251.614
21
-202.257
0
LINE
8
BLACK
6
CONTINUOUS
10
251.614
20
-202.257
11
251.517
21
-201.772
0
LINE
8
BLACK
6
CONTINUOUS
10
251.517
20
-201.772
11
251.517
21
-201.278
0
LINE
8
BLACK
6
CONTINUOUS
10
251.517
20
-201.278
11
251.614
21
-200.793
0
LINE
8
BLACK
6
CONTINUOUS
10
251.614
20
-200.793
11
251.803
21
-200.337
0
LINE
8
BLACK
6
CONTINUOUS
10
251.803
20
-200.337
11
252.077
21
-199.926
0
LINE
8
BLACK
6
CONTINUOUS
10
252.077
20
-199.926
11
252.426
21
-199.577
0
LINE
8
BLACK
6
CONTINUOUS
10
252.426
20
-199.577
11
252.837
21
-199.303
0
LINE
8
BLACK
6
CONTINUOUS
10
252.837
20
-199.303
11
253.293
21
-199.114
0
LINE
8
BLACK
6
CONTINUOUS
10
253.293
20
-199.114
11
253.778
21
-199.017
0
LINE
8
BLACK
6
CONTINUOUS
10
253.778
20
-199.017
11
254.272
21
-199.017
0
LINE
8
BLACK
6
CONTINUOUS
10
254.272
20
-199.017
11
254.757
21
-199.114
0
LINE
8
BLACK
6
CONTINUOUS
10
172.154
20
-202.681
11
172.203
21
-202.701
0
LINE
8
BLACK
6
CONTINUOUS
10
172.203
20
-202.701
11
172.247
21
-202.73
0
LINE
8
BLACK
6
CONTINUOUS
10
172.247
20
-202.73
11
172.285
21
-202.768
0
LINE
8
BLACK
6
CONTINUOUS
10
172.285
20
-202.768
11
172.314
21
-202.812
0
LINE
8
BLACK
6
CONTINUOUS
10
172.314
20
-202.812
11
172.334
21
-202.861
0
LINE
8
BLACK
6
CONTINUOUS
10
172.334
20
-202.861
11
172.344
21
-202.913
0
LINE
8
BLACK
6
CONTINUOUS
10
172.344
20
-202.913
11
172.344
21
-202.966
0
LINE
8
BLACK
6
CONTINUOUS
10
172.344
20
-202.966
11
172.334
21
-203.018
0
LINE
8
BLACK
6
CONTINUOUS
10
172.334
20
-203.018
11
172.314
21
-203.066
0
LINE
8
BLACK
6
CONTINUOUS
10
172.314
20
-203.066
11
172.285
21
-203.11
0
LINE
8
BLACK
6
CONTINUOUS
10
172.285
20
-203.11
11
172.247
21
-203.148
0
LINE
8
BLACK
6
CONTINUOUS
10
172.247
20
-203.148
11
172.203
21
-203.177
0
LINE
8
BLACK
6
CONTINUOUS
10
172.203
20
-203.177
11
172.154
21
-203.198
0
LINE
8
BLACK
6
CONTINUOUS
10
172.154
20
-203.198
11
172.102
21
-203.208
0
LINE
8
BLACK
6
CONTINUOUS
10
172.102
20
-203.208
11
172.049
21
-203.208
0
LINE
8
BLACK
6
CONTINUOUS
10
172.049
20
-203.208
11
171.997
21
-203.198
0
LINE
8
BLACK
6
CONTINUOUS
10
171.997
20
-203.198
11
171.949
21
-203.177
0
LINE
8
BLACK
6
CONTINUOUS
10
171.949
20
-203.177
11
171.905
21
-203.148
0
LINE
8
BLACK
6
CONTINUOUS
10
171.905
20
-203.148
11
171.867
21
-203.11
0
LINE
8
BLACK
6
CONTINUOUS
10
171.867
20
-203.11
11
171.838
21
-203.066
0
LINE
8
BLACK
6
CONTINUOUS
10
171.838
20
-203.066
11
171.817
21
-203.018
0
LINE
8
BLACK
6
CONTINUOUS
10
171.817
20
-203.018
11
171.807
21
-202.966
0
LINE
8
BLACK
6
CONTINUOUS
10
171.807
20
-202.966
11
171.807
21
-202.913
0
LINE
8
BLACK
6
CONTINUOUS
10
171.807
20
-202.913
11
171.817
21
-202.861
0
LINE
8
BLACK
6
CONTINUOUS
10
171.817
20
-202.861
11
171.838
21
-202.812
0
LINE
8
BLACK
6
CONTINUOUS
10
171.838
20
-202.812
11
171.867
21
-202.768
0
LINE
8
BLACK
6
CONTINUOUS
10
171.867
20
-202.768
11
171.905
21
-202.73
0
LINE
8
BLACK
6
CONTINUOUS
10
171.905
20
-202.73
11
171.949
21
-202.701
0
LINE
8
BLACK
6
CONTINUOUS
10
171.949
20
-202.701
11
171.997
21
-202.681
0
LINE
8
BLACK
6
CONTINUOUS
10
171.997
20
-202.681
11
172.049
21
-202.67
0
LINE
8
BLACK
6
CONTINUOUS
10
172.049
20
-202.67
11
172.102
21
-202.67
0
LINE
8
BLACK
6
CONTINUOUS
10
172.102
20
-202.67
11
172.154
21
-202.681
0
LINE
8
BLACK
6
CONTINUOUS
10
172.344
20
-202.027
11
172.387
21
-202.04
0
LINE
8
BLACK
6
CONTINUOUS
10
172.387
20
-202.04
11
172.39
21
-202.042
0
LINE
8
BLACK
6
CONTINUOUS
10
172.39
20
-202.042
11
172.7
21
-202.1
0
LINE
8
BLACK
6
CONTINUOUS
10
172.7
20
-202.1
11
173.1
21
-202.1
0
LINE
8
BLACK
6
CONTINUOUS
10
173.1
20
-202.1
11
173.1
21
-202.4
0
LINE
8
BLACK
6
CONTINUOUS
10
173.1
20
-202.4
11
172.7
21
-202.4
0
LINE
8
BLACK
6
CONTINUOUS
10
172.7
20
-202.4
11
172.39
21
-202.458
0
LINE
8
BLACK
6
CONTINUOUS
10
172.39
20
-202.458
11
172.387
21
-202.46
0
LINE
8
BLACK
6
CONTINUOUS
10
172.387
20
-202.46
11
172.344
21
-202.473
0
LINE
8
BLACK
6
CONTINUOUS
10
172.344
20
-202.473
11
172.311
21
-202.476
0
LINE
8
BLACK
6
CONTINUOUS
10
172.311
20
-202.476
11
166.734
21
-202.476
0
LINE
8
BLACK
6
CONTINUOUS
10
166.734
20
-202.476
11
166.701
21
-202.473
0
LINE
8
BLACK
6
CONTINUOUS
10
166.701
20
-202.473
11
166.658
21
-202.46
0
LINE
8
BLACK
6
CONTINUOUS
10
166.658
20
-202.46
11
166.619
21
-202.439
0
LINE
8
BLACK
6
CONTINUOUS
10
166.619
20
-202.439
11
166.584
21
-202.411
0
LINE
8
BLACK
6
CONTINUOUS
10
166.584
20
-202.411
11
166.556
21
-202.376
0
LINE
8
BLACK
6
CONTINUOUS
10
166.556
20
-202.376
11
166.535
21
-202.337
0
LINE
8
BLACK
6
CONTINUOUS
10
166.535
20
-202.337
11
166.522
21
-202.294
0
LINE
8
BLACK
6
CONTINUOUS
10
166.522
20
-202.294
11
166.518
21
-202.25
0
LINE
8
BLACK
6
CONTINUOUS
10
166.518
20
-202.25
11
166.522
21
-202.206
0
LINE
8
BLACK
6
CONTINUOUS
10
166.522
20
-202.206
11
166.535
21
-202.163
0
LINE
8
BLACK
6
CONTINUOUS
10
166.535
20
-202.163
11
166.556
21
-202.124
0
LINE
8
BLACK
6
CONTINUOUS
10
166.556
20
-202.124
11
166.584
21
-202.089
0
LINE
8
BLACK
6
CONTINUOUS
10
166.584
20
-202.089
11
166.619
21
-202.061
0
LINE
8
BLACK
6
CONTINUOUS
10
166.619
20
-202.061
11
166.658
21
-202.04
0
LINE
8
BLACK
6
CONTINUOUS
10
166.658
20
-202.04
11
166.701
21
-202.027
0
LINE
8
BLACK
6
CONTINUOUS
10
166.701
20
-202.027
11
166.734
21
-202.024
0
LINE
8
BLACK
6
CONTINUOUS
10
166.734
20
-202.024
11
172.311
21
-202.024
0
LINE
8
BLACK
6
CONTINUOUS
10
172.311
20
-202.024
11
172.344
21
-202.027
0
LINE
8
BLACK
6
CONTINUOUS
10
154.569
20
-192.232
11
154.612
21
-192.245
0
LINE
8
BLACK
6
CONTINUOUS
10
154.612
20
-192.245
11
154.651
21
-192.266
0
LINE
8
BLACK
6
CONTINUOUS
10
154.651
20
-192.266
11
154.686
21
-192.295
0
LINE
8
BLACK
6
CONTINUOUS
10
154.686
20
-192.295
11
154.714
21
-192.329
0
LINE
8
BLACK
6
CONTINUOUS
10
154.714
20
-192.329
11
154.735
21
-192.368
0
LINE
8
BLACK
6
CONTINUOUS
10
154.735
20
-192.368
11
154.748
21
-192.411
0
LINE
8
BLACK
6
CONTINUOUS
10
154.748
20
-192.411
11
154.751
21
-192.444
0
LINE
8
BLACK
6
CONTINUOUS
10
154.751
20
-192.444
11
154.751
21
-200.228
0
LINE
8
BLACK
6
CONTINUOUS
10
154.751
20
-200.228
11
154.89
21
-200.927
0
LINE
8
BLACK
6
CONTINUOUS
10
154.89
20
-200.927
11
155.274
21
-201.501
0
LINE
8
BLACK
6
CONTINUOUS
10
155.274
20
-201.501
11
155.894
21
-201.916
0
LINE
8
BLACK
6
CONTINUOUS
10
155.894
20
-201.916
11
155.92
21
-201.937
0
LINE
8
BLACK
6
CONTINUOUS
10
155.92
20
-201.937
11
155.948
21
-201.972
0
LINE
8
BLACK
6
CONTINUOUS
10
155.948
20
-201.972
11
155.969
21
-202.011
0
LINE
8
BLACK
6
CONTINUOUS
10
155.969
20
-202.011
11
155.982
21
-202.053
0
LINE
8
BLACK
6
CONTINUOUS
10
155.982
20
-202.053
11
155.987
21
-202.098
0
LINE
8
BLACK
6
CONTINUOUS
10
155.987
20
-202.098
11
155.982
21
-202.142
0
LINE
8
BLACK
6
CONTINUOUS
10
155.982
20
-202.142
11
155.969
21
-202.185
0
LINE
8
BLACK
6
CONTINUOUS
10
155.969
20
-202.185
11
155.948
21
-202.224
0
LINE
8
BLACK
6
CONTINUOUS
10
155.948
20
-202.224
11
155.92
21
-202.258
0
LINE
8
BLACK
6
CONTINUOUS
10
155.92
20
-202.258
11
155.886
21
-202.287
0
LINE
8
BLACK
6
CONTINUOUS
10
155.886
20
-202.287
11
155.846
21
-202.307
0
LINE
8
BLACK
6
CONTINUOUS
10
155.846
20
-202.307
11
155.804
21
-202.32
0
LINE
8
BLACK
6
CONTINUOUS
10
155.804
20
-202.32
11
155.76
21
-202.325
0
LINE
8
BLACK
6
CONTINUOUS
10
155.76
20
-202.325
11
155.715
21
-202.32
0
LINE
8
BLACK
6
CONTINUOUS
10
155.715
20
-202.32
11
155.673
21
-202.307
0
LINE
8
BLACK
6
CONTINUOUS
10
155.673
20
-202.307
11
155.643
21
-202.292
0
LINE
8
BLACK
6
CONTINUOUS
10
155.643
20
-202.292
11
154.995
21
-201.858
0
LINE
8
BLACK
6
CONTINUOUS
10
154.995
20
-201.858
11
154.985
21
-201.853
0
LINE
8
BLACK
6
CONTINUOUS
10
154.985
20
-201.853
11
154.95
21
-201.825
0
LINE
8
BLACK
6
CONTINUOUS
10
154.95
20
-201.825
11
154.929
21
-201.799
0
LINE
8
BLACK
6
CONTINUOUS
10
154.929
20
-201.799
11
154.929
21
-201.799
0
LINE
8
BLACK
6
CONTINUOUS
10
154.929
20
-201.799
11
154.922
21
-201.79
0
LINE
8
BLACK
6
CONTINUOUS
10
154.922
20
-201.79
11
154.917
21
-201.78
0
LINE
8
BLACK
6
CONTINUOUS
10
154.917
20
-201.78
11
154.496
21
-201.15
0
LINE
8
BLACK
6
CONTINUOUS
10
154.496
20
-201.15
11
154.488
21
-201.141
0
LINE
8
BLACK
6
CONTINUOUS
10
154.488
20
-201.141
11
154.479
21
-201.124
0
LINE
8
BLACK
6
CONTINUOUS
10
154.479
20
-201.124
11
154.468
21
-201.102
0
LINE
8
BLACK
6
CONTINUOUS
10
154.468
20
-201.102
11
154.455
21
-201.06
0
LINE
8
BLACK
6
CONTINUOUS
10
154.455
20
-201.06
11
154.454
21
-201.049
0
LINE
8
BLACK
6
CONTINUOUS
10
154.454
20
-201.049
11
154.306
21
-200.305
0
LINE
8
BLACK
6
CONTINUOUS
10
154.306
20
-200.305
11
154.302
21
-200.294
0
LINE
8
BLACK
6
CONTINUOUS
10
154.302
20
-200.294
11
154.299
21
-200.261
0
LINE
8
BLACK
6
CONTINUOUS
10
154.299
20
-200.261
11
154.299
21
-200.261
0
LINE
8
BLACK
6
CONTINUOUS
10
154.299
20
-200.261
11
154.298
21
-200.25
0
LINE
8
BLACK
6
CONTINUOUS
10
154.298
20
-200.25
11
154.299
21
-200.239
0
LINE
8
BLACK
6
CONTINUOUS
10
154.299
20
-200.239
11
154.299
21
-192.444
0
LINE
8
BLACK
6
CONTINUOUS
10
154.299
20
-192.444
11
154.302
21
-192.411
0
LINE
8
BLACK
6
CONTINUOUS
10
154.302
20
-192.411
11
154.315
21
-192.368
0
LINE
8
BLACK
6
CONTINUOUS
10
154.315
20
-192.368
11
154.336
21
-192.329
0
LINE
8
BLACK
6
CONTINUOUS
10
154.336
20
-192.329
11
154.364
21
-192.295
0
LINE
8
BLACK
6
CONTINUOUS
10
154.364
20
-192.295
11
154.399
21
-192.266
0
LINE
8
BLACK
6
CONTINUOUS
10
154.399
20
-192.266
11
154.438
21
-192.245
0
LINE
8
BLACK
6
CONTINUOUS
10
154.438
20
-192.245
11
154.481
21
-192.232
0
LINE
8
BLACK
6
CONTINUOUS
10
154.481
20
-192.232
11
154.525
21
-192.228
0
LINE
8
BLACK
6
CONTINUOUS
10
154.525
20
-192.228
11
154.569
21
-192.232
0
LINE
8
BLACK
6
CONTINUOUS
10
172.166
20
-201.302
11
172.215
21
-201.323
0
LINE
8
BLACK
6
CONTINUOUS
10
172.215
20
-201.323
11
172.259
21
-201.352
0
LINE
8
BLACK
6
CONTINUOUS
10
172.259
20
-201.352
11
172.296
21
-201.39
0
LINE
8
BLACK
6
CONTINUOUS
10
172.296
20
-201.39
11
172.325
21
-201.434
0
LINE
8
BLACK
6
CONTINUOUS
10
172.325
20
-201.434
11
172.346
21
-201.482
0
LINE
8
BLACK
6
CONTINUOUS
10
172.346
20
-201.482
11
172.356
21
-201.534
0
LINE
8
BLACK
6
CONTINUOUS
10
172.356
20
-201.534
11
172.356
21
-201.587
0
LINE
8
BLACK
6
CONTINUOUS
10
172.356
20
-201.587
11
172.346
21
-201.639
0
LINE
8
BLACK
6
CONTINUOUS
10
172.346
20
-201.639
11
172.325
21
-201.688
0
LINE
8
BLACK
6
CONTINUOUS
10
172.325
20
-201.688
11
172.296
21
-201.732
0
LINE
8
BLACK
6
CONTINUOUS
10
172.296
20
-201.732
11
172.259
21
-201.77
0
LINE
8
BLACK
6
CONTINUOUS
10
172.259
20
-201.77
11
172.215
21
-201.799
0
LINE
8
BLACK
6
CONTINUOUS
10
172.215
20
-201.799
11
172.166
21
-201.819
0
LINE
8
BLACK
6
CONTINUOUS
10
172.166
20
-201.819
11
172.114
21
-201.83
0
LINE
8
BLACK
6
CONTINUOUS
10
172.114
20
-201.83
11
172.061
21
-201.83
0
LINE
8
BLACK
6
CONTINUOUS
10
172.061
20
-201.83
11
172.009
21
-201.819
0
LINE
8
BLACK
6
CONTINUOUS
10
172.009
20
-201.819
11
171.96
21
-201.799
0
LINE
8
BLACK
6
CONTINUOUS
10
171.96
20
-201.799
11
171.916
21
-201.77
0
LINE
8
BLACK
6
CONTINUOUS
10
171.916
20
-201.77
11
171.879
21
-201.732
0
LINE
8
BLACK
6
CONTINUOUS
10
171.879
20
-201.732
11
171.849
21
-201.688
0
LINE
8
BLACK
6
CONTINUOUS
10
171.849
20
-201.688
11
171.829
21
-201.639
0
LINE
8
BLACK
6
CONTINUOUS
10
171.829
20
-201.639
11
171.819
21
-201.587
0
LINE
8
BLACK
6
CONTINUOUS
10
171.819
20
-201.587
11
171.819
21
-201.534
0
LINE
8
BLACK
6
CONTINUOUS
10
171.819
20
-201.534
11
171.829
21
-201.482
0
LINE
8
BLACK
6
CONTINUOUS
10
171.829
20
-201.482
11
171.849
21
-201.434
0
LINE
8
BLACK
6
CONTINUOUS
10
171.849
20
-201.434
11
171.879
21
-201.39
0
LINE
8
BLACK
6
CONTINUOUS
10
171.879
20
-201.39
11
171.916
21
-201.352
0
LINE
8
BLACK
6
CONTINUOUS
10
171.916
20
-201.352
11
171.96
21
-201.323
0
LINE
8
BLACK
6
CONTINUOUS
10
171.96
20
-201.323
11
172.009
21
-201.302
0
LINE
8
BLACK
6
CONTINUOUS
10
172.009
20
-201.302
11
172.061
21
-201.292
0
LINE
8
BLACK
6
CONTINUOUS
10
172.061
20
-201.292
11
172.114
21
-201.292
0
LINE
8
BLACK
6
CONTINUOUS
10
172.114
20
-201.292
11
172.166
21
-201.302
0
LINE
8
BLACK
6
CONTINUOUS
10
187.598
20
-200.298
11
187.585
21
-200.34
0
LINE
8
BLACK
6
CONTINUOUS
10
187.585
20
-200.34
11
187.564
21
-200.379
0
LINE
8
BLACK
6
CONTINUOUS
10
187.564
20
-200.379
11
187.536
21
-200.414
0
LINE
8
BLACK
6
CONTINUOUS
10
187.536
20
-200.414
11
187.501
21
-200.442
0
LINE
8
BLACK
6
CONTINUOUS
10
187.501
20
-200.442
11
187.462
21
-200.463
0
LINE
8
BLACK
6
CONTINUOUS
10
187.462
20
-200.463
11
187.419
21
-200.476
0
LINE
8
BLACK
6
CONTINUOUS
10
187.419
20
-200.476
11
187.375
21
-200.48
0
LINE
8
BLACK
6
CONTINUOUS
10
187.375
20
-200.48
11
187.331
21
-200.476
0
LINE
8
BLACK
6
CONTINUOUS
10
187.331
20
-200.476
11
187.288
21
-200.463
0
LINE
8
BLACK
6
CONTINUOUS
10
187.288
20
-200.463
11
187.249
21
-200.442
0
LINE
8
BLACK
6
CONTINUOUS
10
187.249
20
-200.442
11
187.214
21
-200.414
0
LINE
8
BLACK
6
CONTINUOUS
10
187.214
20
-200.414
11
187.186
21
-200.379
0
LINE
8
BLACK
6
CONTINUOUS
10
187.186
20
-200.379
11
187.165
21
-200.34
0
LINE
8
BLACK
6
CONTINUOUS
10
187.165
20
-200.34
11
187.152
21
-200.298
0
LINE
8
BLACK
6
CONTINUOUS
10
187.152
20
-200.298
11
187.149
21
-200.264
0
LINE
8
BLACK
6
CONTINUOUS
10
187.149
20
-200.264
11
187.149
21
-193.736
0
LINE
8
BLACK
6
CONTINUOUS
10
187.149
20
-193.736
11
187.149
21
-193.736
0
LINE
8
BLACK
6
CONTINUOUS
10
187.149
20
-193.736
11
187.149
21
-190.994
0
LINE
8
BLACK
6
CONTINUOUS
10
187.149
20
-190.994
11
187.152
21
-190.961
0
LINE
8
BLACK
6
CONTINUOUS
10
187.152
20
-190.961
11
187.165
21
-190.918
0
LINE
8
BLACK
6
CONTINUOUS
10
187.165
20
-190.918
11
187.186
21
-190.879
0
LINE
8
BLACK
6
CONTINUOUS
10
187.186
20
-190.879
11
187.214
21
-190.844
0
LINE
8
BLACK
6
CONTINUOUS
10
187.214
20
-190.844
11
187.249
21
-190.816
0
LINE
8
BLACK
6
CONTINUOUS
10
187.249
20
-190.816
11
187.288
21
-190.795
0
LINE
8
BLACK
6
CONTINUOUS
10
187.288
20
-190.795
11
187.331
21
-190.782
0
LINE
8
BLACK
6
CONTINUOUS
10
187.331
20
-190.782
11
187.375
21
-190.778
0
LINE
8
BLACK
6
CONTINUOUS
10
187.375
20
-190.778
11
187.419
21
-190.782
0
LINE
8
BLACK
6
CONTINUOUS
10
187.419
20
-190.782
11
187.462
21
-190.795
0
LINE
8
BLACK
6
CONTINUOUS
10
187.462
20
-190.795
11
187.501
21
-190.816
0
LINE
8
BLACK
6
CONTINUOUS
10
187.501
20
-190.816
11
187.536
21
-190.844
0
LINE
8
BLACK
6
CONTINUOUS
10
187.536
20
-190.844
11
187.564
21
-190.879
0
LINE
8
BLACK
6
CONTINUOUS
10
187.564
20
-190.879
11
187.585
21
-190.918
0
LINE
8
BLACK
6
CONTINUOUS
10
187.585
20
-190.918
11
187.598
21
-190.961
0
LINE
8
BLACK
6
CONTINUOUS
10
187.598
20
-190.961
11
187.601
21
-190.994
0
LINE
8
BLACK
6
CONTINUOUS
10
187.601
20
-190.994
11
187.601
21
-200.264
0
LINE
8
BLACK
6
CONTINUOUS
10
187.601
20
-200.264
11
187.598
21
-200.298
0
LINE
8
BLACK
6
CONTINUOUS
10
194.892
20
-188.785
11
195.022
21
-188.839
0
LINE
8
BLACK
6
CONTINUOUS
10
195.022
20
-188.839
11
195.14
21
-188.917
0
LINE
8
BLACK
6
CONTINUOUS
10
195.14
20
-188.917
11
195.24
21
-189.017
0
LINE
8
BLACK
6
CONTINUOUS
10
195.24
20
-189.017
11
195.318
21
-189.135
0
LINE
8
BLACK
6
CONTINUOUS
10
195.318
20
-189.135
11
195.372
21
-189.265
0
LINE
8
BLACK
6
CONTINUOUS
10
195.372
20
-189.265
11
195.4
21
-189.403
0
LINE
8
BLACK
6
CONTINUOUS
10
195.4
20
-189.403
11
195.4
21
-189.545
0
LINE
8
BLACK
6
CONTINUOUS
10
195.4
20
-189.545
11
195.372
21
-189.683
0
LINE
8
BLACK
6
CONTINUOUS
10
195.372
20
-189.683
11
195.318
21
-189.813
0
LINE
8
BLACK
6
CONTINUOUS
10
195.318
20
-189.813
11
195.24
21
-189.931
0
LINE
8
BLACK
6
CONTINUOUS
10
195.24
20
-189.931
11
195.14
21
-190.031
0
LINE
8
BLACK
6
CONTINUOUS
10
195.14
20
-190.031
11
195.022
21
-190.109
0
LINE
8
BLACK
6
CONTINUOUS
10
195.022
20
-190.109
11
194.892
21
-190.163
0
LINE
8
BLACK
6
CONTINUOUS
10
194.892
20
-190.163
11
194.754
21
-190.191
0
LINE
8
BLACK
6
CONTINUOUS
10
194.754
20
-190.191
11
194.612
21
-190.191
0
LINE
8
BLACK
6
CONTINUOUS
10
194.612
20
-190.191
11
194.474
21
-190.163
0
LINE
8
BLACK
6
CONTINUOUS
10
194.474
20
-190.163
11
194.344
21
-190.109
0
LINE
8
BLACK
6
CONTINUOUS
10
194.344
20
-190.109
11
194.226
21
-190.031
0
LINE
8
BLACK
6
CONTINUOUS
10
194.226
20
-190.031
11
194.126
21
-189.931
0
LINE
8
BLACK
6
CONTINUOUS
10
194.126
20
-189.931
11
194.048
21
-189.813
0
LINE
8
BLACK
6
CONTINUOUS
10
194.048
20
-189.813
11
193.994
21
-189.683
0
LINE
8
BLACK
6
CONTINUOUS
10
193.994
20
-189.683
11
193.966
21
-189.545
0
LINE
8
BLACK
6
CONTINUOUS
10
193.966
20
-189.545
11
193.966
21
-189.403
0
LINE
8
BLACK
6
CONTINUOUS
10
193.966
20
-189.403
11
193.994
21
-189.265
0
LINE
8
BLACK
6
CONTINUOUS
10
193.994
20
-189.265
11
194.048
21
-189.135
0
LINE
8
BLACK
6
CONTINUOUS
10
194.048
20
-189.135
11
194.126
21
-189.017
0
LINE
8
BLACK
6
CONTINUOUS
10
194.126
20
-189.017
11
194.226
21
-188.917
0
LINE
8
BLACK
6
CONTINUOUS
10
194.226
20
-188.917
11
194.344
21
-188.839
0
LINE
8
BLACK
6
CONTINUOUS
10
194.344
20
-188.839
11
194.474
21
-188.785
0
LINE
8
BLACK
6
CONTINUOUS
10
194.474
20
-188.785
11
194.612
21
-188.757
0
LINE
8
BLACK
6
CONTINUOUS
10
194.612
20
-188.757
11
194.754
21
-188.757
0
LINE
8
BLACK
6
CONTINUOUS
10
194.754
20
-188.757
11
194.892
21
-188.785
0
LINE
8
BLACK
6
CONTINUOUS
10
141.925
20
-189.675
11
137.025
21
-189.675
0
LINE
8
BLACK
6
CONTINUOUS
10
137.025
20
-189.675
11
137.025
21
-186.91
0
LINE
8
BLACK
6
CONTINUOUS
10
137.025
20
-186.91
11
141.925
21
-186.91
0
LINE
8
BLACK
6
CONTINUOUS
10
141.925
20
-186.91
11
141.925
21
-189.675
0
LINE
8
BLACK
6
CONTINUOUS
10
237.494
20
-188.302
11
237.537
21
-188.315
0
LINE
8
BLACK
6
CONTINUOUS
10
237.537
20
-188.315
11
237.576
21
-188.336
0
LINE
8
BLACK
6
CONTINUOUS
10
237.576
20
-188.336
11
237.611
21
-188.364
0
LINE
8
BLACK
6
CONTINUOUS
10
237.611
20
-188.364
11
237.639
21
-188.399
0
LINE
8
BLACK
6
CONTINUOUS
10
237.639
20
-188.399
11
237.66
21
-188.438
0
LINE
8
BLACK
6
CONTINUOUS
10
237.66
20
-188.438
11
237.673
21
-188.481
0
LINE
8
BLACK
6
CONTINUOUS
10
237.673
20
-188.481
11
237.677
21
-188.525
0
LINE
8
BLACK
6
CONTINUOUS
10
237.677
20
-188.525
11
237.673
21
-188.569
0
LINE
8
BLACK
6
CONTINUOUS
10
237.673
20
-188.569
11
237.66
21
-188.612
0
LINE
8
BLACK
6
CONTINUOUS
10
237.66
20
-188.612
11
237.639
21
-188.651
0
LINE
8
BLACK
6
CONTINUOUS
10
237.639
20
-188.651
11
237.611
21
-188.686
0
LINE
8
BLACK
6
CONTINUOUS
10
237.611
20
-188.686
11
237.576
21
-188.714
0
LINE
8
BLACK
6
CONTINUOUS
10
237.576
20
-188.714
11
237.537
21
-188.735
0
LINE
8
BLACK
6
CONTINUOUS
10
237.537
20
-188.735
11
237.494
21
-188.748
0
LINE
8
BLACK
6
CONTINUOUS
10
237.494
20
-188.748
11
237.461
21
-188.751
0
LINE
8
BLACK
6
CONTINUOUS
10
237.461
20
-188.751
11
234.564
21
-188.751
0
LINE
8
BLACK
6
CONTINUOUS
10
234.564
20
-188.751
11
234.531
21
-188.748
0
LINE
8
BLACK
6
CONTINUOUS
10
234.531
20
-188.748
11
234.488
21
-188.735
0
LINE
8
BLACK
6
CONTINUOUS
10
234.488
20
-188.735
11
234.449
21
-188.714
0
LINE
8
BLACK
6
CONTINUOUS
10
234.449
20
-188.714
11
234.414
21
-188.686
0
LINE
8
BLACK
6
CONTINUOUS
10
234.414
20
-188.686
11
234.386
21
-188.651
0
LINE
8
BLACK
6
CONTINUOUS
10
234.386
20
-188.651
11
234.365
21
-188.612
0
LINE
8
BLACK
6
CONTINUOUS
10
234.365
20
-188.612
11
234.352
21
-188.569
0
LINE
8
BLACK
6
CONTINUOUS
10
234.352
20
-188.569
11
234.348
21
-188.525
0
LINE
8
BLACK
6
CONTINUOUS
10
234.348
20
-188.525
11
234.352
21
-188.481
0
LINE
8
BLACK
6
CONTINUOUS
10
234.352
20
-188.481
11
234.365
21
-188.438
0
LINE
8
BLACK
6
CONTINUOUS
10
234.365
20
-188.438
11
234.386
21
-188.399
0
LINE
8
BLACK
6
CONTINUOUS
10
234.386
20
-188.399
11
234.414
21
-188.364
0
LINE
8
BLACK
6
CONTINUOUS
10
234.414
20
-188.364
11
234.449
21
-188.336
0
LINE
8
BLACK
6
CONTINUOUS
10
234.449
20
-188.336
11
234.488
21
-188.315
0
LINE
8
BLACK
6
CONTINUOUS
10
234.488
20
-188.315
11
234.531
21
-188.302
0
LINE
8
BLACK
6
CONTINUOUS
10
234.531
20
-188.302
11
234.564
21
-188.299
0
LINE
8
BLACK
6
CONTINUOUS
10
234.564
20
-188.299
11
237.461
21
-188.299
0
LINE
8
BLACK
6
CONTINUOUS
10
237.461
20
-188.299
11
237.494
21
-188.302
0
LINE
8
BLACK
6
CONTINUOUS
10
194.716
20
-186.75
11
194.716
21
-186.75
0
LINE
8
BLACK
6
CONTINUOUS
10
194.716
20
-186.75
11
194.727
21
-186.751
0
LINE
8
BLACK
6
CONTINUOUS
10
194.727
20
-186.751
11
194.738
21
-186.755
0
LINE
8
BLACK
6
CONTINUOUS
10
194.738
20
-186.755
11
195.673
21
-186.94
0
LINE
8
BLACK
6
CONTINUOUS
10
195.673
20
-186.94
11
195.684
21
-186.942
0
LINE
8
BLACK
6
CONTINUOUS
10
195.684
20
-186.942
11
195.719
21
-186.952
0
LINE
8
BLACK
6
CONTINUOUS
10
195.719
20
-186.952
11
195.727
21
-186.954
0
LINE
8
BLACK
6
CONTINUOUS
10
195.727
20
-186.954
11
195.766
21
-186.975
0
LINE
8
BLACK
6
CONTINUOUS
10
195.766
20
-186.975
11
195.774
21
-186.983
0
LINE
8
BLACK
6
CONTINUOUS
10
195.774
20
-186.983
11
196.586
21
-187.524
0
LINE
8
BLACK
6
CONTINUOUS
10
196.586
20
-187.524
11
196.611
21
-187.546
0
LINE
8
BLACK
6
CONTINUOUS
10
196.611
20
-187.546
11
196.64
21
-187.58
0
LINE
8
BLACK
6
CONTINUOUS
10
196.64
20
-187.58
11
196.661
21
-187.619
0
LINE
8
BLACK
6
CONTINUOUS
10
196.661
20
-187.619
11
196.673
21
-187.662
0
LINE
8
BLACK
6
CONTINUOUS
10
196.673
20
-187.662
11
196.678
21
-187.706
0
LINE
8
BLACK
6
CONTINUOUS
10
196.678
20
-187.706
11
196.673
21
-187.751
0
LINE
8
BLACK
6
CONTINUOUS
10
196.673
20
-187.751
11
196.661
21
-187.793
0
LINE
8
BLACK
6
CONTINUOUS
10
196.661
20
-187.793
11
196.64
21
-187.832
0
LINE
8
BLACK
6
CONTINUOUS
10
196.64
20
-187.832
11
196.611
21
-187.867
0
LINE
8
BLACK
6
CONTINUOUS
10
196.611
20
-187.867
11
196.577
21
-187.895
0
LINE
8
BLACK
6
CONTINUOUS
10
196.577
20
-187.895
11
196.538
21
-187.916
0
LINE
8
BLACK
6
CONTINUOUS
10
196.538
20
-187.916
11
196.495
21
-187.929
0
LINE
8
BLACK
6
CONTINUOUS
10
196.495
20
-187.929
11
196.451
21
-187.933
0
LINE
8
BLACK
6
CONTINUOUS
10
196.451
20
-187.933
11
196.406
21
-187.929
0
LINE
8
BLACK
6
CONTINUOUS
10
196.406
20
-187.929
11
196.364
21
-187.916
0
LINE
8
BLACK
6
CONTINUOUS
10
196.364
20
-187.916
11
196.334
21
-187.9
0
LINE
8
BLACK
6
CONTINUOUS
10
196.334
20
-187.9
11
195.552
21
-187.377
0
LINE
8
BLACK
6
CONTINUOUS
10
195.552
20
-187.377
11
194.683
21
-187.204
0
LINE
8
BLACK
6
CONTINUOUS
10
194.683
20
-187.204
11
193.814
21
-187.377
0
LINE
8
BLACK
6
CONTINUOUS
10
193.814
20
-187.377
11
193.059
21
-187.882
0
LINE
8
BLACK
6
CONTINUOUS
10
193.059
20
-187.882
11
192.874
21
-188.067
0
LINE
8
BLACK
6
CONTINUOUS
10
192.874
20
-188.067
11
192.867
21
-188.076
0
LINE
8
BLACK
6
CONTINUOUS
10
192.867
20
-188.076
11
192.841
21
-188.097
0
LINE
8
BLACK
6
CONTINUOUS
10
192.841
20
-188.097
11
192.84
21
-188.098
0
LINE
8
BLACK
6
CONTINUOUS
10
192.84
20
-188.098
11
192.832
21
-188.104
0
LINE
8
BLACK
6
CONTINUOUS
10
192.832
20
-188.104
11
192.823
21
-188.109
0
LINE
8
BLACK
6
CONTINUOUS
10
192.823
20
-188.109
11
192.192
21
-188.531
0
LINE
8
BLACK
6
CONTINUOUS
10
192.192
20
-188.531
11
192.183
21
-188.538
0
LINE
8
BLACK
6
CONTINUOUS
10
192.183
20
-188.538
11
192.144
21
-188.559
0
LINE
8
BLACK
6
CONTINUOUS
10
192.144
20
-188.559
11
192.138
21
-188.561
0
LINE
8
BLACK
6
CONTINUOUS
10
192.138
20
-188.561
11
192.101
21
-188.572
0
LINE
8
BLACK
6
CONTINUOUS
10
192.101
20
-188.572
11
192.09
21
-188.573
0
LINE
8
BLACK
6
CONTINUOUS
10
192.09
20
-188.573
11
191.325
21
-188.725
0
LINE
8
BLACK
6
CONTINUOUS
10
191.325
20
-188.725
11
191.292
21
-188.728
0
LINE
8
BLACK
6
CONTINUOUS
10
191.292
20
-188.728
11
191.247
21
-188.724
0
LINE
8
BLACK
6
CONTINUOUS
10
191.247
20
-188.724
11
191.205
21
-188.711
0
LINE
8
BLACK
6
CONTINUOUS
10
191.205
20
-188.711
11
191.166
21
-188.69
0
LINE
8
BLACK
6
CONTINUOUS
10
191.166
20
-188.69
11
191.131
21
-188.662
0
LINE
8
BLACK
6
CONTINUOUS
10
191.131
20
-188.662
11
191.103
21
-188.627
0
LINE
8
BLACK
6
CONTINUOUS
10
191.103
20
-188.627
11
191.082
21
-188.588
0
LINE
8
BLACK
6
CONTINUOUS
10
191.082
20
-188.588
11
191.069
21
-188.546
0
LINE
8
BLACK
6
CONTINUOUS
10
191.069
20
-188.546
11
191.065
21
-188.501
0
LINE
8
BLACK
6
CONTINUOUS
10
191.065
20
-188.501
11
191.069
21
-188.457
0
LINE
8
BLACK
6
CONTINUOUS
10
191.069
20
-188.457
11
191.082
21
-188.414
0
LINE
8
BLACK
6
CONTINUOUS
10
191.082
20
-188.414
11
191.103
21
-188.375
0
LINE
8
BLACK
6
CONTINUOUS
10
191.103
20
-188.375
11
191.131
21
-188.341
0
LINE
8
BLACK
6
CONTINUOUS
10
191.131
20
-188.341
11
191.166
21
-188.312
0
LINE
8
BLACK
6
CONTINUOUS
10
191.166
20
-188.312
11
191.205
21
-188.291
0
LINE
8
BLACK
6
CONTINUOUS
10
191.205
20
-188.291
11
191.237
21
-188.282
0
LINE
8
BLACK
6
CONTINUOUS
10
191.237
20
-188.282
11
191.969
21
-188.136
0
LINE
8
BLACK
6
CONTINUOUS
10
191.969
20
-188.136
11
192.562
21
-187.74
0
LINE
8
BLACK
6
CONTINUOUS
10
192.562
20
-187.74
11
192.747
21
-187.555
0
LINE
8
BLACK
6
CONTINUOUS
10
192.747
20
-187.555
11
192.755
21
-187.546
0
LINE
8
BLACK
6
CONTINUOUS
10
192.755
20
-187.546
11
192.78
21
-187.524
0
LINE
8
BLACK
6
CONTINUOUS
10
192.78
20
-187.524
11
192.781
21
-187.524
0
LINE
8
BLACK
6
CONTINUOUS
10
192.781
20
-187.524
11
192.789
21
-187.517
0
LINE
8
BLACK
6
CONTINUOUS
10
192.789
20
-187.517
11
192.798
21
-187.513
0
LINE
8
BLACK
6
CONTINUOUS
10
192.798
20
-187.513
11
193.591
21
-186.983
0
LINE
8
BLACK
6
CONTINUOUS
10
193.591
20
-186.983
11
193.6
21
-186.975
0
LINE
8
BLACK
6
CONTINUOUS
10
193.6
20
-186.975
11
193.634
21
-186.957
0
LINE
8
BLACK
6
CONTINUOUS
10
193.634
20
-186.957
11
193.639
21
-186.954
0
LINE
8
BLACK
6
CONTINUOUS
10
193.639
20
-186.954
11
193.682
21
-186.942
0
LINE
8
BLACK
6
CONTINUOUS
10
193.682
20
-186.942
11
193.693
21
-186.94
0
LINE
8
BLACK
6
CONTINUOUS
10
193.693
20
-186.94
11
194.628
21
-186.755
0
LINE
8
BLACK
6
CONTINUOUS
10
194.628
20
-186.755
11
194.639
21
-186.751
0
LINE
8
BLACK
6
CONTINUOUS
10
194.639
20
-186.751
11
194.65
21
-186.75
0
LINE
8
BLACK
6
CONTINUOUS
10
194.65
20
-186.75
11
194.65
21
-186.75
0
LINE
8
BLACK
6
CONTINUOUS
10
194.65
20
-186.75
11
194.683
21
-186.747
0
LINE
8
BLACK
6
CONTINUOUS
10
194.683
20
-186.747
11
194.716
21
-186.75
0
LINE
8
BLACK
6
CONTINUOUS
10
209.504
20
-188.277
11
209.547
21
-188.29
0
LINE
8
BLACK
6
CONTINUOUS
10
209.547
20
-188.29
11
209.586
21
-188.311
0
LINE
8
BLACK
6
CONTINUOUS
10
209.586
20
-188.311
11
209.621
21
-188.339
0
LINE
8
BLACK
6
CONTINUOUS
10
209.621
20
-188.339
11
209.649
21
-188.374
0
LINE
8
BLACK
6
CONTINUOUS
10
209.649
20
-188.374
11
209.67
21
-188.413
0
LINE
8
BLACK
6
CONTINUOUS
10
209.67
20
-188.413
11
209.683
21
-188.456
0
LINE
8
BLACK
6
CONTINUOUS
10
209.683
20
-188.456
11
209.687
21
-188.5
0
LINE
8
BLACK
6
CONTINUOUS
10
209.687
20
-188.5
11
209.683
21
-188.544
0
LINE
8
BLACK
6
CONTINUOUS
10
209.683
20
-188.544
11
209.67
21
-188.587
0
LINE
8
BLACK
6
CONTINUOUS
10
209.67
20
-188.587
11
209.649
21
-188.626
0
LINE
8
BLACK
6
CONTINUOUS
10
209.649
20
-188.626
11
209.621
21
-188.661
0
LINE
8
BLACK
6
CONTINUOUS
10
209.621
20
-188.661
11
209.586
21
-188.689
0
LINE
8
BLACK
6
CONTINUOUS
10
209.586
20
-188.689
11
209.547
21
-188.71
0
LINE
8
BLACK
6
CONTINUOUS
10
209.547
20
-188.71
11
209.504
21
-188.723
0
LINE
8
BLACK
6
CONTINUOUS
10
209.504
20
-188.723
11
209.471
21
-188.726
0
LINE
8
BLACK
6
CONTINUOUS
10
209.471
20
-188.726
11
203.789
21
-188.726
0
LINE
8
BLACK
6
CONTINUOUS
10
203.789
20
-188.726
11
203.756
21
-188.723
0
LINE
8
BLACK
6
CONTINUOUS
10
203.756
20
-188.723
11
203.713
21
-188.71
0
LINE
8
BLACK
6
CONTINUOUS
10
203.713
20
-188.71
11
203.674
21
-188.689
0
LINE
8
BLACK
6
CONTINUOUS
10
203.674
20
-188.689
11
203.639
21
-188.661
0
LINE
8
BLACK
6
CONTINUOUS
10
203.639
20
-188.661
11
203.611
21
-188.626
0
LINE
8
BLACK
6
CONTINUOUS
10
203.611
20
-188.626
11
203.59
21
-188.587
0
LINE
8
BLACK
6
CONTINUOUS
10
203.59
20
-188.587
11
203.577
21
-188.544
0
LINE
8
BLACK
6
CONTINUOUS
10
203.577
20
-188.544
11
203.573
21
-188.5
0
LINE
8
BLACK
6
CONTINUOUS
10
203.573
20
-188.5
11
203.577
21
-188.456
0
LINE
8
BLACK
6
CONTINUOUS
10
203.577
20
-188.456
11
203.59
21
-188.413
0
LINE
8
BLACK
6
CONTINUOUS
10
203.59
20
-188.413
11
203.611
21
-188.374
0
LINE
8
BLACK
6
CONTINUOUS
10
203.611
20
-188.374
11
203.639
21
-188.339
0
LINE
8
BLACK
6
CONTINUOUS
10
203.639
20
-188.339
11
203.674
21
-188.311
0
LINE
8
BLACK
6
CONTINUOUS
10
203.674
20
-188.311
11
203.713
21
-188.29
0
LINE
8
BLACK
6
CONTINUOUS
10
203.713
20
-188.29
11
203.756
21
-188.277
0
LINE
8
BLACK
6
CONTINUOUS
10
203.756
20
-188.277
11
203.789
21
-188.274
0
LINE
8
BLACK
6
CONTINUOUS
10
203.789
20
-188.274
11
209.471
21
-188.274
0
LINE
8
BLACK
6
CONTINUOUS
10
209.471
20
-188.274
11
209.504
21
-188.277
0
LINE
8
BLACK
6
CONTINUOUS
10
223.435
20
-188.277
11
223.478
21
-188.29
0
LINE
8
BLACK
6
CONTINUOUS
10
223.478
20
-188.29
11
223.517
21
-188.311
0
LINE
8
BLACK
6
CONTINUOUS
10
223.517
20
-188.311
11
223.551
21
-188.339
0
LINE
8
BLACK
6
CONTINUOUS
10
223.551
20
-188.339
11
223.58
21
-188.374
0
LINE
8
BLACK
6
CONTINUOUS
10
223.58
20
-188.374
11
223.601
21
-188.413
0
LINE
8
BLACK
6
CONTINUOUS
10
223.601
20
-188.413
11
223.614
21
-188.456
0
LINE
8
BLACK
6
CONTINUOUS
10
223.614
20
-188.456
11
223.618
21
-188.5
0
LINE
8
BLACK
6
CONTINUOUS
10
223.618
20
-188.5
11
223.614
21
-188.544
0
LINE
8
BLACK
6
CONTINUOUS
10
223.614
20
-188.544
11
223.601
21
-188.587
0
LINE
8
BLACK
6
CONTINUOUS
10
223.601
20
-188.587
11
223.58
21
-188.626
0
LINE
8
BLACK
6
CONTINUOUS
10
223.58
20
-188.626
11
223.551
21
-188.661
0
LINE
8
BLACK
6
CONTINUOUS
10
223.551
20
-188.661
11
223.517
21
-188.689
0
LINE
8
BLACK
6
CONTINUOUS
10
223.517
20
-188.689
11
223.478
21
-188.71
0
LINE
8
BLACK
6
CONTINUOUS
10
223.478
20
-188.71
11
223.435
21
-188.723
0
LINE
8
BLACK
6
CONTINUOUS
10
223.435
20
-188.723
11
223.402
21
-188.726
0
LINE
8
BLACK
6
CONTINUOUS
10
223.402
20
-188.726
11
220.264
21
-188.726
0
LINE
8
BLACK
6
CONTINUOUS
10
220.264
20
-188.726
11
220.231
21
-188.723
0
LINE
8
BLACK
6
CONTINUOUS
10
220.231
20
-188.723
11
220.188
21
-188.71
0
LINE
8
BLACK
6
CONTINUOUS
10
220.188
20
-188.71
11
220.149
21
-188.689
0
LINE
8
BLACK
6
CONTINUOUS
10
220.149
20
-188.689
11
220.114
21
-188.661
0
LINE
8
BLACK
6
CONTINUOUS
10
220.114
20
-188.661
11
220.086
21
-188.626
0
LINE
8
BLACK
6
CONTINUOUS
10
220.086
20
-188.626
11
220.065
21
-188.587
0
LINE
8
BLACK
6
CONTINUOUS
10
220.065
20
-188.587
11
220.052
21
-188.544
0
LINE
8
BLACK
6
CONTINUOUS
10
220.052
20
-188.544
11
220.048
21
-188.5
0
LINE
8
BLACK
6
CONTINUOUS
10
220.048
20
-188.5
11
220.052
21
-188.456
0
LINE
8
BLACK
6
CONTINUOUS
10
220.052
20
-188.456
11
220.065
21
-188.413
0
LINE
8
BLACK
6
CONTINUOUS
10
220.065
20
-188.413
11
220.086
21
-188.374
0
LINE
8
BLACK
6
CONTINUOUS
10
220.086
20
-188.374
11
220.114
21
-188.339
0
LINE
8
BLACK
6
CONTINUOUS
10
220.114
20
-188.339
11
220.149
21
-188.311
0
LINE
8
BLACK
6
CONTINUOUS
10
220.149
20
-188.311
11
220.188
21
-188.29
0
LINE
8
BLACK
6
CONTINUOUS
10
220.188
20
-188.29
11
220.231
21
-188.277
0
LINE
8
BLACK
6
CONTINUOUS
10
220.231
20
-188.277
11
220.264
21
-188.274
0
LINE
8
BLACK
6
CONTINUOUS
10
220.264
20
-188.274
11
223.402
21
-188.274
0
LINE
8
BLACK
6
CONTINUOUS
10
223.402
20
-188.274
11
223.435
21
-188.277
0
LINE
8
BLACK
6
CONTINUOUS
10
144.425
20
-186.248
11
144.436
21
-186.249
0
LINE
8
BLACK
6
CONTINUOUS
10
144.436
20
-186.249
11
144.436
21
-186.249
0
LINE
8
BLACK
6
CONTINUOUS
10
144.436
20
-186.249
11
144.469
21
-186.252
0
LINE
8
BLACK
6
CONTINUOUS
10
144.469
20
-186.252
11
144.48
21
-186.256
0
LINE
8
BLACK
6
CONTINUOUS
10
144.48
20
-186.256
11
145.224
21
-186.404
0
LINE
8
BLACK
6
CONTINUOUS
10
145.224
20
-186.404
11
145.235
21
-186.405
0
LINE
8
BLACK
6
CONTINUOUS
10
145.235
20
-186.405
11
145.245
21
-186.408
0
LINE
8
BLACK
6
CONTINUOUS
10
145.245
20
-186.408
11
145.245
21
-186.408
0
LINE
8
BLACK
6
CONTINUOUS
10
145.245
20
-186.408
11
145.277
21
-186.418
0
LINE
8
BLACK
6
CONTINUOUS
10
145.277
20
-186.418
11
145.295
21
-186.427
0
LINE
8
BLACK
6
CONTINUOUS
10
145.295
20
-186.427
11
145.307
21
-186.433
0
LINE
8
BLACK
6
CONTINUOUS
10
145.307
20
-186.433
11
145.307
21
-186.433
0
LINE
8
BLACK
6
CONTINUOUS
10
145.307
20
-186.433
11
145.316
21
-186.439
0
LINE
8
BLACK
6
CONTINUOUS
10
145.316
20
-186.439
11
145.325
21
-186.446
0
LINE
8
BLACK
6
CONTINUOUS
10
145.325
20
-186.446
11
145.974
21
-186.879
0
LINE
8
BLACK
6
CONTINUOUS
10
145.974
20
-186.879
11
146
21
-186.9
0
LINE
8
BLACK
6
CONTINUOUS
10
146
20
-186.9
11
146.028
21
-186.935
0
LINE
8
BLACK
6
CONTINUOUS
10
146.028
20
-186.935
11
146.049
21
-186.974
0
LINE
8
BLACK
6
CONTINUOUS
10
146.049
20
-186.974
11
146.062
21
-187.017
0
LINE
8
BLACK
6
CONTINUOUS
10
146.062
20
-187.017
11
146.066
21
-187.061
0
LINE
8
BLACK
6
CONTINUOUS
10
146.066
20
-187.061
11
146.062
21
-187.105
0
LINE
8
BLACK
6
CONTINUOUS
10
146.062
20
-187.105
11
146.049
21
-187.148
0
LINE
8
BLACK
6
CONTINUOUS
10
146.049
20
-187.148
11
146.028
21
-187.187
0
LINE
8
BLACK
6
CONTINUOUS
10
146.028
20
-187.187
11
146
21
-187.221
0
LINE
8
BLACK
6
CONTINUOUS
10
146
20
-187.221
11
145.965
21
-187.25
0
LINE
8
BLACK
6
CONTINUOUS
10
145.965
20
-187.25
11
145.926
21
-187.271
0
LINE
8
BLACK
6
CONTINUOUS
10
145.926
20
-187.271
11
145.883
21
-187.283
0
LINE
8
BLACK
6
CONTINUOUS
10
145.883
20
-187.283
11
145.839
21
-187.288
0
LINE
8
BLACK
6
CONTINUOUS
10
145.839
20
-187.288
11
145.795
21
-187.283
0
LINE
8
BLACK
6
CONTINUOUS
10
145.795
20
-187.283
11
145.752
21
-187.271
0
LINE
8
BLACK
6
CONTINUOUS
10
145.752
20
-187.271
11
145.723
21
-187.255
0
LINE
8
BLACK
6
CONTINUOUS
10
145.723
20
-187.255
11
145.102
21
-186.84
0
LINE
8
BLACK
6
CONTINUOUS
10
145.102
20
-186.84
11
144.403
21
-186.701
0
LINE
8
BLACK
6
CONTINUOUS
10
144.403
20
-186.701
11
141.925
21
-186.701
0
LINE
8
BLACK
6
CONTINUOUS
10
141.925
20
-186.701
11
141.925
21
-186.71
0
LINE
8
BLACK
6
CONTINUOUS
10
141.925
20
-186.71
11
137.127
21
-186.71
0
LINE
8
BLACK
6
CONTINUOUS
10
137.127
20
-186.71
11
137.127
21
-186.24
0
LINE
8
BLACK
6
CONTINUOUS
10
137.127
20
-186.24
11
141.925
21
-186.24
0
LINE
8
BLACK
6
CONTINUOUS
10
141.925
20
-186.24
11
141.925
21
-186.249
0
LINE
8
BLACK
6
CONTINUOUS
10
141.925
20
-186.249
11
144.414
21
-186.249
0
LINE
8
BLACK
6
CONTINUOUS
10
144.414
20
-186.249
11
144.425
21
-186.248
0
LINE
8
BLACK
6
CONTINUOUS
10
141.925
20
-186.04
11
137.025
21
-186.04
0
LINE
8
BLACK
6
CONTINUOUS
10
137.025
20
-186.04
11
137.025
21
-183.275
0
LINE
8
BLACK
6
CONTINUOUS
10
137.025
20
-183.275
11
141.925
21
-183.275
0
LINE
8
BLACK
6
CONTINUOUS
10
141.925
20
-183.275
11
141.925
21
-186.04
0
LINE
8
BLACK
6
CONTINUOUS
10
253.769
20
-151.812
11
253.812
21
-151.825
0
LINE
8
BLACK
6
CONTINUOUS
10
253.812
20
-151.825
11
253.851
21
-151.846
0
LINE
8
BLACK
6
CONTINUOUS
10
253.851
20
-151.846
11
253.886
21
-151.874
0
LINE
8
BLACK
6
CONTINUOUS
10
253.886
20
-151.874
11
253.914
21
-151.909
0
LINE
8
BLACK
6
CONTINUOUS
10
253.914
20
-151.909
11
253.935
21
-151.948
0
LINE
8
BLACK
6
CONTINUOUS
10
253.935
20
-151.948
11
253.948
21
-151.991
0
LINE
8
BLACK
6
CONTINUOUS
10
253.948
20
-151.991
11
253.951
21
-152.024
0
LINE
8
BLACK
6
CONTINUOUS
10
253.951
20
-152.024
11
253.951
21
-162.743
0
LINE
8
BLACK
6
CONTINUOUS
10
253.951
20
-162.743
11
253.952
21
-162.754
0
LINE
8
BLACK
6
CONTINUOUS
10
253.952
20
-162.754
11
253.95
21
-162.774
0
LINE
8
BLACK
6
CONTINUOUS
10
253.95
20
-162.774
11
253.949
21
-162.794
0
LINE
8
BLACK
6
CONTINUOUS
10
253.949
20
-162.794
11
253.948
21
-162.797
0
LINE
8
BLACK
6
CONTINUOUS
10
253.948
20
-162.797
11
253.948
21
-162.798
0
LINE
8
BLACK
6
CONTINUOUS
10
253.948
20
-162.798
11
253.945
21
-162.808
0
LINE
8
BLACK
6
CONTINUOUS
10
253.945
20
-162.808
11
253.32
21
-165.948
0
LINE
8
BLACK
6
CONTINUOUS
10
253.32
20
-165.948
11
253.319
21
-165.959
0
LINE
8
BLACK
6
CONTINUOUS
10
253.319
20
-165.959
11
253.306
21
-166.002
0
LINE
8
BLACK
6
CONTINUOUS
10
253.306
20
-166.002
11
253.29
21
-166.031
0
LINE
8
BLACK
6
CONTINUOUS
10
253.29
20
-166.031
11
253.29
21
-166.031
0
LINE
8
BLACK
6
CONTINUOUS
10
253.29
20
-166.031
11
253.285
21
-166.041
0
LINE
8
BLACK
6
CONTINUOUS
10
253.285
20
-166.041
11
253.278
21
-166.05
0
LINE
8
BLACK
6
CONTINUOUS
10
253.278
20
-166.05
11
251.5
21
-168.711
0
LINE
8
BLACK
6
CONTINUOUS
10
251.5
20
-168.711
11
251.494
21
-168.72
0
LINE
8
BLACK
6
CONTINUOUS
10
251.494
20
-168.72
11
251.473
21
-168.746
0
LINE
8
BLACK
6
CONTINUOUS
10
251.473
20
-168.746
11
251.473
21
-168.746
0
LINE
8
BLACK
6
CONTINUOUS
10
251.473
20
-168.746
11
251.466
21
-168.755
0
LINE
8
BLACK
6
CONTINUOUS
10
251.466
20
-168.755
11
251.458
21
-168.762
0
LINE
8
BLACK
6
CONTINUOUS
10
251.458
20
-168.762
11
243.262
21
-176.957
0
LINE
8
BLACK
6
CONTINUOUS
10
243.262
20
-176.957
11
242.329
21
-178.354
0
LINE
8
BLACK
6
CONTINUOUS
10
242.329
20
-178.354
11
242.001
21
-180.002
0
LINE
8
BLACK
6
CONTINUOUS
10
242.001
20
-180.002
11
242.001
21
-185.711
0
LINE
8
BLACK
6
CONTINUOUS
10
242.001
20
-185.711
11
241.998
21
-185.744
0
LINE
8
BLACK
6
CONTINUOUS
10
241.998
20
-185.744
11
241.985
21
-185.787
0
LINE
8
BLACK
6
CONTINUOUS
10
241.985
20
-185.787
11
241.964
21
-185.826
0
LINE
8
BLACK
6
CONTINUOUS
10
241.964
20
-185.826
11
241.935
21
-185.861
0
LINE
8
BLACK
6
CONTINUOUS
10
241.935
20
-185.861
11
241.901
21
-185.889
0
LINE
8
BLACK
6
CONTINUOUS
10
241.901
20
-185.889
11
241.862
21
-185.91
0
LINE
8
BLACK
6
CONTINUOUS
10
241.862
20
-185.91
11
241.819
21
-185.923
0
LINE
8
BLACK
6
CONTINUOUS
10
241.819
20
-185.923
11
241.775
21
-185.927
0
LINE
8
BLACK
6
CONTINUOUS
10
241.775
20
-185.927
11
241.731
21
-185.923
0
LINE
8
BLACK
6
CONTINUOUS
10
241.731
20
-185.923
11
241.688
21
-185.91
0
LINE
8
BLACK
6
CONTINUOUS
10
241.688
20
-185.91
11
241.649
21
-185.889
0
LINE
8
BLACK
6
CONTINUOUS
10
241.649
20
-185.889
11
241.614
21
-185.861
0
LINE
8
BLACK
6
CONTINUOUS
10
241.614
20
-185.861
11
241.586
21
-185.826
0
LINE
8
BLACK
6
CONTINUOUS
10
241.586
20
-185.826
11
241.565
21
-185.787
0
LINE
8
BLACK
6
CONTINUOUS
10
241.565
20
-185.787
11
241.552
21
-185.744
0
LINE
8
BLACK
6
CONTINUOUS
10
241.552
20
-185.744
11
241.549
21
-185.711
0
LINE
8
BLACK
6
CONTINUOUS
10
241.549
20
-185.711
11
241.549
21
-179.99
0
LINE
8
BLACK
6
CONTINUOUS
10
241.549
20
-179.99
11
241.548
21
-179.979
0
LINE
8
BLACK
6
CONTINUOUS
10
241.548
20
-179.979
11
241.549
21
-179.966
0
LINE
8
BLACK
6
CONTINUOUS
10
241.549
20
-179.966
11
241.549
21
-179.963
0
LINE
8
BLACK
6
CONTINUOUS
10
241.549
20
-179.963
11
241.55
21
-179.955
0
LINE
8
BLACK
6
CONTINUOUS
10
241.55
20
-179.955
11
241.551
21
-179.953
0
LINE
8
BLACK
6
CONTINUOUS
10
241.551
20
-179.953
11
241.552
21
-179.937
0
LINE
8
BLACK
6
CONTINUOUS
10
241.552
20
-179.937
11
241.553
21
-179.934
0
LINE
8
BLACK
6
CONTINUOUS
10
241.553
20
-179.934
11
241.553
21
-179.93
0
LINE
8
BLACK
6
CONTINUOUS
10
241.553
20
-179.93
11
241.556
21
-179.922
0
LINE
8
BLACK
6
CONTINUOUS
10
241.556
20
-179.922
11
241.892
21
-178.233
0
LINE
8
BLACK
6
CONTINUOUS
10
241.892
20
-178.233
11
241.893
21
-178.222
0
LINE
8
BLACK
6
CONTINUOUS
10
241.893
20
-178.222
11
241.897
21
-178.211
0
LINE
8
BLACK
6
CONTINUOUS
10
241.897
20
-178.211
11
241.897
21
-178.211
0
LINE
8
BLACK
6
CONTINUOUS
10
241.897
20
-178.211
11
241.906
21
-178.179
0
LINE
8
BLACK
6
CONTINUOUS
10
241.906
20
-178.179
11
241.927
21
-178.14
0
LINE
8
BLACK
6
CONTINUOUS
10
241.927
20
-178.14
11
241.934
21
-178.131
0
LINE
8
BLACK
6
CONTINUOUS
10
241.934
20
-178.131
11
242.893
21
-176.697
0
LINE
8
BLACK
6
CONTINUOUS
10
242.893
20
-176.697
11
242.898
21
-176.687
0
LINE
8
BLACK
6
CONTINUOUS
10
242.898
20
-176.687
11
242.905
21
-176.679
0
LINE
8
BLACK
6
CONTINUOUS
10
242.905
20
-176.679
11
242.905
21
-176.679
0
LINE
8
BLACK
6
CONTINUOUS
10
242.905
20
-176.679
11
242.915
21
-176.666
0
LINE
8
BLACK
6
CONTINUOUS
10
242.915
20
-176.666
11
242.919
21
-176.661
0
LINE
8
BLACK
6
CONTINUOUS
10
242.919
20
-176.661
11
242.919
21
-176.661
0
LINE
8
BLACK
6
CONTINUOUS
10
242.919
20
-176.661
11
242.926
21
-176.653
0
LINE
8
BLACK
6
CONTINUOUS
10
242.926
20
-176.653
11
242.935
21
-176.646
0
LINE
8
BLACK
6
CONTINUOUS
10
242.935
20
-176.646
11
251.13
21
-168.45
0
LINE
8
BLACK
6
CONTINUOUS
10
251.13
20
-168.45
11
252.883
21
-165.827
0
LINE
8
BLACK
6
CONTINUOUS
10
252.883
20
-165.827
11
253.499
21
-162.732
0
LINE
8
BLACK
6
CONTINUOUS
10
253.499
20
-162.732
11
253.499
21
-152.024
0
LINE
8
BLACK
6
CONTINUOUS
10
253.499
20
-152.024
11
253.502
21
-151.991
0
LINE
8
BLACK
6
CONTINUOUS
10
253.502
20
-151.991
11
253.515
21
-151.948
0
LINE
8
BLACK
6
CONTINUOUS
10
253.515
20
-151.948
11
253.536
21
-151.909
0
LINE
8
BLACK
6
CONTINUOUS
10
253.536
20
-151.909
11
253.564
21
-151.874
0
LINE
8
BLACK
6
CONTINUOUS
10
253.564
20
-151.874
11
253.599
21
-151.846
0
LINE
8
BLACK
6
CONTINUOUS
10
253.599
20
-151.846
11
253.638
21
-151.825
0
LINE
8
BLACK
6
CONTINUOUS
10
253.638
20
-151.825
11
253.681
21
-151.812
0
LINE
8
BLACK
6
CONTINUOUS
10
253.681
20
-151.812
11
253.725
21
-151.808
0
LINE
8
BLACK
6
CONTINUOUS
10
253.725
20
-151.808
11
253.769
21
-151.812
0
LINE
8
BLACK
6
CONTINUOUS
10
168.539
20
-184.177
11
168.582
21
-184.19
0
LINE
8
BLACK
6
CONTINUOUS
10
168.582
20
-184.19
11
168.621
21
-184.211
0
LINE
8
BLACK
6
CONTINUOUS
10
168.621
20
-184.211
11
168.656
21
-184.239
0
LINE
8
BLACK
6
CONTINUOUS
10
168.656
20
-184.239
11
168.684
21
-184.274
0
LINE
8
BLACK
6
CONTINUOUS
10
168.684
20
-184.274
11
168.705
21
-184.313
0
LINE
8
BLACK
6
CONTINUOUS
10
168.705
20
-184.313
11
168.718
21
-184.356
0
LINE
8
BLACK
6
CONTINUOUS
10
168.718
20
-184.356
11
168.722
21
-184.4
0
LINE
8
BLACK
6
CONTINUOUS
10
168.722
20
-184.4
11
168.718
21
-184.444
0
LINE
8
BLACK
6
CONTINUOUS
10
168.718
20
-184.444
11
168.705
21
-184.487
0
LINE
8
BLACK
6
CONTINUOUS
10
168.705
20
-184.487
11
168.684
21
-184.526
0
LINE
8
BLACK
6
CONTINUOUS
10
168.684
20
-184.526
11
168.656
21
-184.561
0
LINE
8
BLACK
6
CONTINUOUS
10
168.656
20
-184.561
11
168.621
21
-184.589
0
LINE
8
BLACK
6
CONTINUOUS
10
168.621
20
-184.589
11
168.582
21
-184.61
0
LINE
8
BLACK
6
CONTINUOUS
10
168.582
20
-184.61
11
168.539
21
-184.623
0
LINE
8
BLACK
6
CONTINUOUS
10
168.539
20
-184.623
11
168.506
21
-184.626
0
LINE
8
BLACK
6
CONTINUOUS
10
168.506
20
-184.626
11
156.514
21
-184.626
0
LINE
8
BLACK
6
CONTINUOUS
10
156.514
20
-184.626
11
156.481
21
-184.623
0
LINE
8
BLACK
6
CONTINUOUS
10
156.481
20
-184.623
11
156.438
21
-184.61
0
LINE
8
BLACK
6
CONTINUOUS
10
156.438
20
-184.61
11
156.399
21
-184.589
0
LINE
8
BLACK
6
CONTINUOUS
10
156.399
20
-184.589
11
156.364
21
-184.561
0
LINE
8
BLACK
6
CONTINUOUS
10
156.364
20
-184.561
11
156.336
21
-184.526
0
LINE
8
BLACK
6
CONTINUOUS
10
156.336
20
-184.526
11
156.315
21
-184.487
0
LINE
8
BLACK
6
CONTINUOUS
10
156.315
20
-184.487
11
156.302
21
-184.444
0
LINE
8
BLACK
6
CONTINUOUS
10
156.302
20
-184.444
11
156.298
21
-184.4
0
LINE
8
BLACK
6
CONTINUOUS
10
156.298
20
-184.4
11
156.302
21
-184.356
0
LINE
8
BLACK
6
CONTINUOUS
10
156.302
20
-184.356
11
156.315
21
-184.313
0
LINE
8
BLACK
6
CONTINUOUS
10
156.315
20
-184.313
11
156.336
21
-184.274
0
LINE
8
BLACK
6
CONTINUOUS
10
156.336
20
-184.274
11
156.364
21
-184.239
0
LINE
8
BLACK
6
CONTINUOUS
10
156.364
20
-184.239
11
156.399
21
-184.211
0
LINE
8
BLACK
6
CONTINUOUS
10
156.399
20
-184.211
11
156.438
21
-184.19
0
LINE
8
BLACK
6
CONTINUOUS
10
156.438
20
-184.19
11
156.481
21
-184.177
0
LINE
8
BLACK
6
CONTINUOUS
10
156.481
20
-184.177
11
156.514
21
-184.174
0
LINE
8
BLACK
6
CONTINUOUS
10
156.514
20
-184.174
11
168.506
21
-184.174
0
LINE
8
BLACK
6
CONTINUOUS
10
168.506
20
-184.174
11
168.539
21
-184.177
0
LINE
8
BLACK
6
CONTINUOUS
10
185.413
20
-184.152
11
185.455
21
-184.165
0
LINE
8
BLACK
6
CONTINUOUS
10
185.455
20
-184.165
11
185.495
21
-184.186
0
LINE
8
BLACK
6
CONTINUOUS
10
185.495
20
-184.186
11
185.529
21
-184.214
0
LINE
8
BLACK
6
CONTINUOUS
10
185.529
20
-184.214
11
185.557
21
-184.249
0
LINE
8
BLACK
6
CONTINUOUS
10
185.557
20
-184.249
11
185.578
21
-184.288
0
LINE
8
BLACK
6
CONTINUOUS
10
185.578
20
-184.288
11
185.591
21
-184.331
0
LINE
8
BLACK
6
CONTINUOUS
10
185.591
20
-184.331
11
185.595
21
-184.375
0
LINE
8
BLACK
6
CONTINUOUS
10
185.595
20
-184.375
11
185.591
21
-184.419
0
LINE
8
BLACK
6
CONTINUOUS
10
185.591
20
-184.419
11
185.578
21
-184.462
0
LINE
8
BLACK
6
CONTINUOUS
10
185.578
20
-184.462
11
185.557
21
-184.501
0
LINE
8
BLACK
6
CONTINUOUS
10
185.557
20
-184.501
11
185.529
21
-184.536
0
LINE
8
BLACK
6
CONTINUOUS
10
185.529
20
-184.536
11
185.495
21
-184.564
0
LINE
8
BLACK
6
CONTINUOUS
10
185.495
20
-184.564
11
185.455
21
-184.585
0
LINE
8
BLACK
6
CONTINUOUS
10
185.455
20
-184.585
11
185.413
21
-184.598
0
LINE
8
BLACK
6
CONTINUOUS
10
185.413
20
-184.598
11
185.38
21
-184.601
0
LINE
8
BLACK
6
CONTINUOUS
10
185.38
20
-184.601
11
175.199
21
-184.601
0
LINE
8
BLACK
6
CONTINUOUS
10
175.199
20
-184.601
11
175.166
21
-184.598
0
LINE
8
BLACK
6
CONTINUOUS
10
175.166
20
-184.598
11
175.123
21
-184.585
0
LINE
8
BLACK
6
CONTINUOUS
10
175.123
20
-184.585
11
175.084
21
-184.564
0
LINE
8
BLACK
6
CONTINUOUS
10
175.084
20
-184.564
11
175.05
21
-184.536
0
LINE
8
BLACK
6
CONTINUOUS
10
175.05
20
-184.536
11
175.021
21
-184.501
0
LINE
8
BLACK
6
CONTINUOUS
10
175.021
20
-184.501
11
175
21
-184.462
0
LINE
8
BLACK
6
CONTINUOUS
10
175
20
-184.462
11
174.987
21
-184.419
0
LINE
8
BLACK
6
CONTINUOUS
10
174.987
20
-184.419
11
174.983
21
-184.375
0
LINE
8
BLACK
6
CONTINUOUS
10
174.983
20
-184.375
11
174.987
21
-184.331
0
LINE
8
BLACK
6
CONTINUOUS
10
174.987
20
-184.331
11
175
21
-184.288
0
LINE
8
BLACK
6
CONTINUOUS
10
175
20
-184.288
11
175.021
21
-184.249
0
LINE
8
BLACK
6
CONTINUOUS
10
175.021
20
-184.249
11
175.05
21
-184.214
0
LINE
8
BLACK
6
CONTINUOUS
10
175.05
20
-184.214
11
175.084
21
-184.186
0
LINE
8
BLACK
6
CONTINUOUS
10
175.084
20
-184.186
11
175.123
21
-184.165
0
LINE
8
BLACK
6
CONTINUOUS
10
175.123
20
-184.165
11
175.166
21
-184.152
0
LINE
8
BLACK
6
CONTINUOUS
10
175.166
20
-184.152
11
175.199
21
-184.149
0
LINE
8
BLACK
6
CONTINUOUS
10
175.199
20
-184.149
11
185.38
21
-184.149
0
LINE
8
BLACK
6
CONTINUOUS
10
185.38
20
-184.149
11
185.413
21
-184.152
0
LINE
8
BLACK
6
CONTINUOUS
10
143.482
20
-175.339
11
143.938
21
-175.528
0
LINE
8
BLACK
6
CONTINUOUS
10
143.938
20
-175.528
11
144.349
21
-175.802
0
LINE
8
BLACK
6
CONTINUOUS
10
144.349
20
-175.802
11
144.698
21
-176.151
0
LINE
8
BLACK
6
CONTINUOUS
10
144.698
20
-176.151
11
144.972
21
-176.562
0
LINE
8
BLACK
6
CONTINUOUS
10
144.972
20
-176.562
11
145.161
21
-177.018
0
LINE
8
BLACK
6
CONTINUOUS
10
145.161
20
-177.018
11
145.258
21
-177.503
0
LINE
8
BLACK
6
CONTINUOUS
10
145.258
20
-177.503
11
145.258
21
-177.997
0
LINE
8
BLACK
6
CONTINUOUS
10
145.258
20
-177.997
11
145.161
21
-178.482
0
LINE
8
BLACK
6
CONTINUOUS
10
145.161
20
-178.482
11
144.972
21
-178.938
0
LINE
8
BLACK
6
CONTINUOUS
10
144.972
20
-178.938
11
144.698
21
-179.349
0
LINE
8
BLACK
6
CONTINUOUS
10
144.698
20
-179.349
11
144.349
21
-179.698
0
LINE
8
BLACK
6
CONTINUOUS
10
144.349
20
-179.698
11
143.938
21
-179.972
0
LINE
8
BLACK
6
CONTINUOUS
10
143.938
20
-179.972
11
143.482
21
-180.161
0
LINE
8
BLACK
6
CONTINUOUS
10
143.482
20
-180.161
11
142.997
21
-180.258
0
LINE
8
BLACK
6
CONTINUOUS
10
142.997
20
-180.258
11
142.503
21
-180.258
0
LINE
8
BLACK
6
CONTINUOUS
10
142.503
20
-180.258
11
142.018
21
-180.161
0
LINE
8
BLACK
6
CONTINUOUS
10
142.018
20
-180.161
11
141.562
21
-179.972
0
LINE
8
BLACK
6
CONTINUOUS
10
141.562
20
-179.972
11
141.151
21
-179.698
0
LINE
8
BLACK
6
CONTINUOUS
10
141.151
20
-179.698
11
140.802
21
-179.349
0
LINE
8
BLACK
6
CONTINUOUS
10
140.802
20
-179.349
11
140.528
21
-178.938
0
LINE
8
BLACK
6
CONTINUOUS
10
140.528
20
-178.938
11
140.339
21
-178.482
0
LINE
8
BLACK
6
CONTINUOUS
10
140.339
20
-178.482
11
140.242
21
-177.997
0
LINE
8
BLACK
6
CONTINUOUS
10
140.242
20
-177.997
11
140.242
21
-177.503
0
LINE
8
BLACK
6
CONTINUOUS
10
140.242
20
-177.503
11
140.339
21
-177.018
0
LINE
8
BLACK
6
CONTINUOUS
10
140.339
20
-177.018
11
140.528
21
-176.562
0
LINE
8
BLACK
6
CONTINUOUS
10
140.528
20
-176.562
11
140.802
21
-176.151
0
LINE
8
BLACK
6
CONTINUOUS
10
140.802
20
-176.151
11
141.151
21
-175.802
0
LINE
8
BLACK
6
CONTINUOUS
10
141.151
20
-175.802
11
141.562
21
-175.528
0
LINE
8
BLACK
6
CONTINUOUS
10
141.562
20
-175.528
11
142.018
21
-175.339
0
LINE
8
BLACK
6
CONTINUOUS
10
142.018
20
-175.339
11
142.503
21
-175.242
0
LINE
8
BLACK
6
CONTINUOUS
10
142.503
20
-175.242
11
142.997
21
-175.242
0
LINE
8
BLACK
6
CONTINUOUS
10
142.997
20
-175.242
11
143.482
21
-175.339
0
LINE
8
BLACK
6
CONTINUOUS
10
162.431
20
-167.746
11
163.068
21
-168.01
0
LINE
8
BLACK
6
CONTINUOUS
10
163.068
20
-168.01
11
163.642
21
-168.393
0
LINE
8
BLACK
6
CONTINUOUS
10
163.642
20
-168.393
11
164.13
21
-168.881
0
LINE
8
BLACK
6
CONTINUOUS
10
164.13
20
-168.881
11
164.513
21
-169.455
0
LINE
8
BLACK
6
CONTINUOUS
10
164.513
20
-169.455
11
164.777
21
-170.092
0
LINE
8
BLACK
6
CONTINUOUS
10
164.777
20
-170.092
11
164.912
21
-170.769
0
LINE
8
BLACK
6
CONTINUOUS
10
164.912
20
-170.769
11
164.912
21
-171.459
0
LINE
8
BLACK
6
CONTINUOUS
10
164.912
20
-171.459
11
164.777
21
-172.136
0
LINE
8
BLACK
6
CONTINUOUS
10
164.777
20
-172.136
11
164.513
21
-172.773
0
LINE
8
BLACK
6
CONTINUOUS
10
164.513
20
-172.773
11
164.13
21
-173.347
0
LINE
8
BLACK
6
CONTINUOUS
10
164.13
20
-173.347
11
163.642
21
-173.835
0
LINE
8
BLACK
6
CONTINUOUS
10
163.642
20
-173.835
11
163.068
21
-174.218
0
LINE
8
BLACK
6
CONTINUOUS
10
163.068
20
-174.218
11
162.431
21
-174.482
0
LINE
8
BLACK
6
CONTINUOUS
10
162.431
20
-174.482
11
161.754
21
-174.617
0
LINE
8
BLACK
6
CONTINUOUS
10
161.754
20
-174.617
11
161.064
21
-174.617
0
LINE
8
BLACK
6
CONTINUOUS
10
161.064
20
-174.617
11
160.387
21
-174.482
0
LINE
8
BLACK
6
CONTINUOUS
10
160.387
20
-174.482
11
159.75
21
-174.218
0
LINE
8
BLACK
6
CONTINUOUS
10
159.75
20
-174.218
11
159.176
21
-173.835
0
LINE
8
BLACK
6
CONTINUOUS
10
159.176
20
-173.835
11
158.688
21
-173.347
0
LINE
8
BLACK
6
CONTINUOUS
10
158.688
20
-173.347
11
158.305
21
-172.773
0
LINE
8
BLACK
6
CONTINUOUS
10
158.305
20
-172.773
11
158.041
21
-172.136
0
LINE
8
BLACK
6
CONTINUOUS
10
158.041
20
-172.136
11
157.906
21
-171.459
0
LINE
8
BLACK
6
CONTINUOUS
10
157.906
20
-171.459
11
157.906
21
-170.769
0
LINE
8
BLACK
6
CONTINUOUS
10
157.906
20
-170.769
11
158.041
21
-170.092
0
LINE
8
BLACK
6
CONTINUOUS
10
158.041
20
-170.092
11
158.305
21
-169.455
0
LINE
8
BLACK
6
CONTINUOUS
10
158.305
20
-169.455
11
158.688
21
-168.881
0
LINE
8
BLACK
6
CONTINUOUS
10
158.688
20
-168.881
11
159.176
21
-168.393
0
LINE
8
BLACK
6
CONTINUOUS
10
159.176
20
-168.393
11
159.75
21
-168.01
0
LINE
8
BLACK
6
CONTINUOUS
10
159.75
20
-168.01
11
160.387
21
-167.746
0
LINE
8
BLACK
6
CONTINUOUS
10
160.387
20
-167.746
11
161.064
21
-167.611
0
LINE
8
BLACK
6
CONTINUOUS
10
161.064
20
-167.611
11
161.754
21
-167.611
0
LINE
8
BLACK
6
CONTINUOUS
10
161.754
20
-167.611
11
162.431
21
-167.746
0
LINE
8
BLACK
6
CONTINUOUS
10
240.082
20
-169.214
11
240.538
21
-169.403
0
LINE
8
BLACK
6
CONTINUOUS
10
240.538
20
-169.403
11
240.949
21
-169.677
0
LINE
8
BLACK
6
CONTINUOUS
10
240.949
20
-169.677
11
241.298
21
-170.026
0
LINE
8
BLACK
6
CONTINUOUS
10
241.298
20
-170.026
11
241.572
21
-170.437
0
LINE
8
BLACK
6
CONTINUOUS
10
241.572
20
-170.437
11
241.761
21
-170.893
0
LINE
8
BLACK
6
CONTINUOUS
10
241.761
20
-170.893
11
241.858
21
-171.378
0
LINE
8
BLACK
6
CONTINUOUS
10
241.858
20
-171.378
11
241.858
21
-171.872
0
LINE
8
BLACK
6
CONTINUOUS
10
241.858
20
-171.872
11
241.761
21
-172.357
0
LINE
8
BLACK
6
CONTINUOUS
10
241.761
20
-172.357
11
241.572
21
-172.813
0
LINE
8
BLACK
6
CONTINUOUS
10
241.572
20
-172.813
11
241.298
21
-173.224
0
LINE
8
BLACK
6
CONTINUOUS
10
241.298
20
-173.224
11
240.949
21
-173.573
0
LINE
8
BLACK
6
CONTINUOUS
10
240.949
20
-173.573
11
240.538
21
-173.847
0
LINE
8
BLACK
6
CONTINUOUS
10
240.538
20
-173.847
11
240.082
21
-174.036
0
LINE
8
BLACK
6
CONTINUOUS
10
240.082
20
-174.036
11
239.597
21
-174.133
0
LINE
8
BLACK
6
CONTINUOUS
10
239.597
20
-174.133
11
239.103
21
-174.133
0
LINE
8
BLACK
6
CONTINUOUS
10
239.103
20
-174.133
11
238.618
21
-174.036
0
LINE
8
BLACK
6
CONTINUOUS
10
238.618
20
-174.036
11
238.162
21
-173.847
0
LINE
8
BLACK
6
CONTINUOUS
10
238.162
20
-173.847
11
237.751
21
-173.573
0
LINE
8
BLACK
6
CONTINUOUS
10
237.751
20
-173.573
11
237.402
21
-173.224
0
LINE
8
BLACK
6
CONTINUOUS
10
237.402
20
-173.224
11
237.128
21
-172.813
0
LINE
8
BLACK
6
CONTINUOUS
10
237.128
20
-172.813
11
236.939
21
-172.357
0
LINE
8
BLACK
6
CONTINUOUS
10
236.939
20
-172.357
11
236.842
21
-171.872
0
LINE
8
BLACK
6
CONTINUOUS
10
236.842
20
-171.872
11
236.842
21
-171.378
0
LINE
8
BLACK
6
CONTINUOUS
10
236.842
20
-171.378
11
236.939
21
-170.893
0
LINE
8
BLACK
6
CONTINUOUS
10
236.939
20
-170.893
11
237.128
21
-170.437
0
LINE
8
BLACK
6
CONTINUOUS
10
237.128
20
-170.437
11
237.402
21
-170.026
0
LINE
8
BLACK
6
CONTINUOUS
10
237.402
20
-170.026
11
237.751
21
-169.677
0
LINE
8
BLACK
6
CONTINUOUS
10
237.751
20
-169.677
11
238.162
21
-169.403
0
LINE
8
BLACK
6
CONTINUOUS
10
238.162
20
-169.403
11
238.618
21
-169.214
0
LINE
8
BLACK
6
CONTINUOUS
10
238.618
20
-169.214
11
239.103
21
-169.117
0
LINE
8
BLACK
6
CONTINUOUS
10
239.103
20
-169.117
11
239.597
21
-169.117
0
LINE
8
BLACK
6
CONTINUOUS
10
239.597
20
-169.117
11
240.082
21
-169.214
0
LINE
8
BLACK
6
CONTINUOUS
10
141.925
20
-172.675
11
137.025
21
-172.675
0
LINE
8
BLACK
6
CONTINUOUS
10
137.025
20
-172.675
11
137.025
21
-169.91
0
LINE
8
BLACK
6
CONTINUOUS
10
137.025
20
-169.91
11
141.925
21
-169.91
0
LINE
8
BLACK
6
CONTINUOUS
10
141.925
20
-169.91
11
141.925
21
-172.675
0
LINE
8
BLACK
6
CONTINUOUS
10
144.956
20
-141.4
11
145.005
21
-141.421
0
LINE
8
BLACK
6
CONTINUOUS
10
145.005
20
-141.421
11
145.05
21
-141.451
0
LINE
8
BLACK
6
CONTINUOUS
10
145.05
20
-141.451
11
145.088
21
-141.489
0
LINE
8
BLACK
6
CONTINUOUS
10
145.088
20
-141.489
11
145.118
21
-141.534
0
LINE
8
BLACK
6
CONTINUOUS
10
145.118
20
-141.534
11
145.138
21
-141.583
0
LINE
8
BLACK
6
CONTINUOUS
10
145.138
20
-141.583
11
145.149
21
-141.636
0
LINE
8
BLACK
6
CONTINUOUS
10
145.149
20
-141.636
11
145.149
21
-141.69
0
LINE
8
BLACK
6
CONTINUOUS
10
145.149
20
-141.69
11
145.138
21
-141.742
0
LINE
8
BLACK
6
CONTINUOUS
10
145.138
20
-141.742
11
145.118
21
-141.792
0
LINE
8
BLACK
6
CONTINUOUS
10
145.118
20
-141.792
11
145.102
21
-141.815
0
LINE
8
BLACK
6
CONTINUOUS
10
145.102
20
-141.815
11
145.102
21
-167.463
0
LINE
8
BLACK
6
CONTINUOUS
10
145.102
20
-167.463
11
145.103
21
-167.475
0
LINE
8
BLACK
6
CONTINUOUS
10
145.103
20
-167.475
11
145.1
21
-167.508
0
LINE
8
BLACK
6
CONTINUOUS
10
145.1
20
-167.508
11
145.1
21
-167.509
0
LINE
8
BLACK
6
CONTINUOUS
10
145.1
20
-167.509
11
145.099
21
-167.519
0
LINE
8
BLACK
6
CONTINUOUS
10
145.099
20
-167.519
11
145.096
21
-167.529
0
LINE
8
BLACK
6
CONTINUOUS
10
145.096
20
-167.529
11
144.948
21
-168.274
0
LINE
8
BLACK
6
CONTINUOUS
10
144.948
20
-168.274
11
144.946
21
-168.285
0
LINE
8
BLACK
6
CONTINUOUS
10
144.946
20
-168.285
11
144.934
21
-168.327
0
LINE
8
BLACK
6
CONTINUOUS
10
144.934
20
-168.327
11
144.918
21
-168.357
0
LINE
8
BLACK
6
CONTINUOUS
10
144.918
20
-168.357
11
144.918
21
-168.357
0
LINE
8
BLACK
6
CONTINUOUS
10
144.918
20
-168.357
11
144.913
21
-168.367
0
LINE
8
BLACK
6
CONTINUOUS
10
144.913
20
-168.367
11
144.906
21
-168.375
0
LINE
8
BLACK
6
CONTINUOUS
10
144.906
20
-168.375
11
144.484
21
-169.006
0
LINE
8
BLACK
6
CONTINUOUS
10
144.484
20
-169.006
11
144.479
21
-169.015
0
LINE
8
BLACK
6
CONTINUOUS
10
144.479
20
-169.015
11
144.451
21
-169.05
0
LINE
8
BLACK
6
CONTINUOUS
10
144.451
20
-169.05
11
144.425
21
-169.071
0
LINE
8
BLACK
6
CONTINUOUS
10
144.425
20
-169.071
11
144.425
21
-169.071
0
LINE
8
BLACK
6
CONTINUOUS
10
144.425
20
-169.071
11
144.416
21
-169.078
0
LINE
8
BLACK
6
CONTINUOUS
10
144.416
20
-169.078
11
144.407
21
-169.083
0
LINE
8
BLACK
6
CONTINUOUS
10
144.407
20
-169.083
11
143.776
21
-169.505
0
LINE
8
BLACK
6
CONTINUOUS
10
143.776
20
-169.505
11
143.768
21
-169.512
0
LINE
8
BLACK
6
CONTINUOUS
10
143.768
20
-169.512
11
143.758
21
-169.517
0
LINE
8
BLACK
6
CONTINUOUS
10
143.758
20
-169.517
11
143.728
21
-169.533
0
LINE
8
BLACK
6
CONTINUOUS
10
143.728
20
-169.533
11
143.728
21
-169.533
0
LINE
8
BLACK
6
CONTINUOUS
10
143.728
20
-169.533
11
143.696
21
-169.542
0
LINE
8
BLACK
6
CONTINUOUS
10
143.696
20
-169.542
11
143.696
21
-169.542
0
LINE
8
BLACK
6
CONTINUOUS
10
143.696
20
-169.542
11
143.686
21
-169.545
0
LINE
8
BLACK
6
CONTINUOUS
10
143.686
20
-169.545
11
143.675
21
-169.547
0
LINE
8
BLACK
6
CONTINUOUS
10
143.675
20
-169.547
11
142.93
21
-169.695
0
LINE
8
BLACK
6
CONTINUOUS
10
142.93
20
-169.695
11
142.92
21
-169.698
0
LINE
8
BLACK
6
CONTINUOUS
10
142.92
20
-169.698
11
142.91
21
-169.699
0
LINE
8
BLACK
6
CONTINUOUS
10
142.91
20
-169.699
11
142.909
21
-169.699
0
LINE
8
BLACK
6
CONTINUOUS
10
142.909
20
-169.699
11
142.876
21
-169.702
0
LINE
8
BLACK
6
CONTINUOUS
10
142.876
20
-169.702
11
142.864
21
-169.701
0
LINE
8
BLACK
6
CONTINUOUS
10
142.864
20
-169.701
11
141.925
21
-169.701
0
LINE
8
BLACK
6
CONTINUOUS
10
141.925
20
-169.701
11
141.925
21
-169.71
0
LINE
8
BLACK
6
CONTINUOUS
10
141.925
20
-169.71
11
140.925
21
-169.71
0
LINE
8
BLACK
6
CONTINUOUS
10
140.925
20
-169.71
11
140.925
21
-169.71
0
LINE
8
BLACK
6
CONTINUOUS
10
140.925
20
-169.71
11
137.127
21
-169.71
0
LINE
8
BLACK
6
CONTINUOUS
10
137.127
20
-169.71
11
137.127
21
-169.24
0
LINE
8
BLACK
6
CONTINUOUS
10
137.127
20
-169.24
11
141.425
21
-169.24
0
LINE
8
BLACK
6
CONTINUOUS
10
141.425
20
-169.24
11
141.425
21
-169.24
0
LINE
8
BLACK
6
CONTINUOUS
10
141.425
20
-169.24
11
141.925
21
-169.24
0
LINE
8
BLACK
6
CONTINUOUS
10
141.925
20
-169.24
11
141.925
21
-169.249
0
LINE
8
BLACK
6
CONTINUOUS
10
141.925
20
-169.249
11
142.854
21
-169.249
0
LINE
8
BLACK
6
CONTINUOUS
10
142.854
20
-169.249
11
143.553
21
-169.11
0
LINE
8
BLACK
6
CONTINUOUS
10
143.553
20
-169.11
11
144.127
21
-168.726
0
LINE
8
BLACK
6
CONTINUOUS
10
144.127
20
-168.726
11
144.511
21
-168.152
0
LINE
8
BLACK
6
CONTINUOUS
10
144.511
20
-168.152
11
144.65
21
-167.453
0
LINE
8
BLACK
6
CONTINUOUS
10
144.65
20
-167.453
11
144.65
21
-141.815
0
LINE
8
BLACK
6
CONTINUOUS
10
144.65
20
-141.815
11
144.634
21
-141.792
0
LINE
8
BLACK
6
CONTINUOUS
10
144.634
20
-141.792
11
144.614
21
-141.742
0
LINE
8
BLACK
6
CONTINUOUS
10
144.614
20
-141.742
11
144.603
21
-141.69
0
LINE
8
BLACK
6
CONTINUOUS
10
144.603
20
-141.69
11
144.603
21
-141.636
0
LINE
8
BLACK
6
CONTINUOUS
10
144.603
20
-141.636
11
144.614
21
-141.583
0
LINE
8
BLACK
6
CONTINUOUS
10
144.614
20
-141.583
11
144.634
21
-141.534
0
LINE
8
BLACK
6
CONTINUOUS
10
144.634
20
-141.534
11
144.664
21
-141.489
0
LINE
8
BLACK
6
CONTINUOUS
10
144.664
20
-141.489
11
144.702
21
-141.451
0
LINE
8
BLACK
6
CONTINUOUS
10
144.702
20
-141.451
11
144.747
21
-141.421
0
LINE
8
BLACK
6
CONTINUOUS
10
144.747
20
-141.421
11
144.796
21
-141.4
0
LINE
8
BLACK
6
CONTINUOUS
10
144.796
20
-141.4
11
144.849
21
-141.39
0
LINE
8
BLACK
6
CONTINUOUS
10
144.849
20
-141.39
11
144.903
21
-141.39
0
LINE
8
BLACK
6
CONTINUOUS
10
144.903
20
-141.39
11
144.956
21
-141.4
0
LINE
8
BLACK
6
CONTINUOUS
10
141.925
20
-169.04
11
137.025
21
-169.04
0
LINE
8
BLACK
6
CONTINUOUS
10
137.025
20
-169.04
11
137.025
21
-166.275
0
LINE
8
BLACK
6
CONTINUOUS
10
137.025
20
-166.275
11
141.925
21
-166.275
0
LINE
8
BLACK
6
CONTINUOUS
10
141.925
20
-166.275
11
141.925
21
-169.04
0
LINE
8
BLACK
6
CONTINUOUS
10
195.482
20
-159.639
11
195.938
21
-159.828
0
LINE
8
BLACK
6
CONTINUOUS
10
195.938
20
-159.828
11
196.349
21
-160.102
0
LINE
8
BLACK
6
CONTINUOUS
10
196.349
20
-160.102
11
196.698
21
-160.451
0
LINE
8
BLACK
6
CONTINUOUS
10
196.698
20
-160.451
11
196.972
21
-160.862
0
LINE
8
BLACK
6
CONTINUOUS
10
196.972
20
-160.862
11
197.161
21
-161.318
0
LINE
8
BLACK
6
CONTINUOUS
10
197.161
20
-161.318
11
197.258
21
-161.803
0
LINE
8
BLACK
6
CONTINUOUS
10
197.258
20
-161.803
11
197.258
21
-162.297
0
LINE
8
BLACK
6
CONTINUOUS
10
197.258
20
-162.297
11
197.161
21
-162.782
0
LINE
8
BLACK
6
CONTINUOUS
10
197.161
20
-162.782
11
196.972
21
-163.238
0
LINE
8
BLACK
6
CONTINUOUS
10
196.972
20
-163.238
11
196.698
21
-163.649
0
LINE
8
BLACK
6
CONTINUOUS
10
196.698
20
-163.649
11
196.349
21
-163.998
0
LINE
8
BLACK
6
CONTINUOUS
10
196.349
20
-163.998
11
195.938
21
-164.272
0
LINE
8
BLACK
6
CONTINUOUS
10
195.938
20
-164.272
11
195.482
21
-164.461
0
LINE
8
BLACK
6
CONTINUOUS
10
195.482
20
-164.461
11
194.997
21
-164.558
0
LINE
8
BLACK
6
CONTINUOUS
10
194.997
20
-164.558
11
194.503
21
-164.558
0
LINE
8
BLACK
6
CONTINUOUS
10
194.503
20
-164.558
11
194.018
21
-164.461
0
LINE
8
BLACK
6
CONTINUOUS
10
194.018
20
-164.461
11
193.562
21
-164.272
0
LINE
8
BLACK
6
CONTINUOUS
10
193.562
20
-164.272
11
193.151
21
-163.998
0
LINE
8
BLACK
6
CONTINUOUS
10
193.151
20
-163.998
11
192.802
21
-163.649
0
LINE
8
BLACK
6
CONTINUOUS
10
192.802
20
-163.649
11
192.528
21
-163.238
0
LINE
8
BLACK
6
CONTINUOUS
10
192.528
20
-163.238
11
192.339
21
-162.782
0
LINE
8
BLACK
6
CONTINUOUS
10
192.339
20
-162.782
11
192.242
21
-162.297
0
LINE
8
BLACK
6
CONTINUOUS
10
192.242
20
-162.297
11
192.242
21
-161.803
0
LINE
8
BLACK
6
CONTINUOUS
10
192.242
20
-161.803
11
192.339
21
-161.318
0
LINE
8
BLACK
6
CONTINUOUS
10
192.339
20
-161.318
11
192.528
21
-160.862
0
LINE
8
BLACK
6
CONTINUOUS
10
192.528
20
-160.862
11
192.802
21
-160.451
0
LINE
8
BLACK
6
CONTINUOUS
10
192.802
20
-160.451
11
193.151
21
-160.102
0
LINE
8
BLACK
6
CONTINUOUS
10
193.151
20
-160.102
11
193.562
21
-159.828
0
LINE
8
BLACK
6
CONTINUOUS
10
193.562
20
-159.828
11
194.018
21
-159.639
0
LINE
8
BLACK
6
CONTINUOUS
10
194.018
20
-159.639
11
194.503
21
-159.542
0
LINE
8
BLACK
6
CONTINUOUS
10
194.503
20
-159.542
11
194.997
21
-159.542
0
LINE
8
BLACK
6
CONTINUOUS
10
194.997
20
-159.542
11
195.482
21
-159.639
0
LINE
8
BLACK
6
CONTINUOUS
10
151.332
20
-146.764
11
151.788
21
-146.953
0
LINE
8
BLACK
6
CONTINUOUS
10
151.788
20
-146.953
11
152.199
21
-147.227
0
LINE
8
BLACK
6
CONTINUOUS
10
152.199
20
-147.227
11
152.548
21
-147.576
0
LINE
8
BLACK
6
CONTINUOUS
10
152.548
20
-147.576
11
152.822
21
-147.987
0
LINE
8
BLACK
6
CONTINUOUS
10
152.822
20
-147.987
11
153.011
21
-148.443
0
LINE
8
BLACK
6
CONTINUOUS
10
153.011
20
-148.443
11
153.108
21
-148.928
0
LINE
8
BLACK
6
CONTINUOUS
10
153.108
20
-148.928
11
153.108
21
-149.422
0
LINE
8
BLACK
6
CONTINUOUS
10
153.108
20
-149.422
11
153.011
21
-149.907
0
LINE
8
BLACK
6
CONTINUOUS
10
153.011
20
-149.907
11
152.822
21
-150.363
0
LINE
8
BLACK
6
CONTINUOUS
10
152.822
20
-150.363
11
152.548
21
-150.774
0
LINE
8
BLACK
6
CONTINUOUS
10
152.548
20
-150.774
11
152.199
21
-151.123
0
LINE
8
BLACK
6
CONTINUOUS
10
152.199
20
-151.123
11
151.788
21
-151.397
0
LINE
8
BLACK
6
CONTINUOUS
10
151.788
20
-151.397
11
151.332
21
-151.586
0
LINE
8
BLACK
6
CONTINUOUS
10
151.332
20
-151.586
11
150.847
21
-151.683
0
LINE
8
BLACK
6
CONTINUOUS
10
150.847
20
-151.683
11
150.353
21
-151.683
0
LINE
8
BLACK
6
CONTINUOUS
10
150.353
20
-151.683
11
149.868
21
-151.586
0
LINE
8
BLACK
6
CONTINUOUS
10
149.868
20
-151.586
11
149.412
21
-151.397
0
LINE
8
BLACK
6
CONTINUOUS
10
149.412
20
-151.397
11
149.001
21
-151.123
0
LINE
8
BLACK
6
CONTINUOUS
10
149.001
20
-151.123
11
148.652
21
-150.774
0
LINE
8
BLACK
6
CONTINUOUS
10
148.652
20
-150.774
11
148.378
21
-150.363
0
LINE
8
BLACK
6
CONTINUOUS
10
148.378
20
-150.363
11
148.189
21
-149.907
0
LINE
8
BLACK
6
CONTINUOUS
10
148.189
20
-149.907
11
148.092
21
-149.422
0
LINE
8
BLACK
6
CONTINUOUS
10
148.092
20
-149.422
11
148.092
21
-148.928
0
LINE
8
BLACK
6
CONTINUOUS
10
148.092
20
-148.928
11
148.189
21
-148.443
0
LINE
8
BLACK
6
CONTINUOUS
10
148.189
20
-148.443
11
148.378
21
-147.987
0
LINE
8
BLACK
6
CONTINUOUS
10
148.378
20
-147.987
11
148.652
21
-147.576
0
LINE
8
BLACK
6
CONTINUOUS
10
148.652
20
-147.576
11
149.001
21
-147.227
0
LINE
8
BLACK
6
CONTINUOUS
10
149.001
20
-147.227
11
149.412
21
-146.953
0
LINE
8
BLACK
6
CONTINUOUS
10
149.412
20
-146.953
11
149.868
21
-146.764
0
LINE
8
BLACK
6
CONTINUOUS
10
149.868
20
-146.764
11
150.353
21
-146.667
0
LINE
8
BLACK
6
CONTINUOUS
10
150.353
20
-146.667
11
150.847
21
-146.667
0
LINE
8
BLACK
6
CONTINUOUS
10
150.847
20
-146.667
11
151.332
21
-146.764
0
LINE
8
BLACK
6
CONTINUOUS
10
248.621
20
-134.936
11
248.621
21
-134.936
0
LINE
8
BLACK
6
CONTINUOUS
10
248.621
20
-134.936
11
248.655
21
-134.939
0
LINE
8
BLACK
6
CONTINUOUS
10
248.655
20
-134.939
11
248.665
21
-134.942
0
LINE
8
BLACK
6
CONTINUOUS
10
248.665
20
-134.942
11
250.601
21
-135.327
0
LINE
8
BLACK
6
CONTINUOUS
10
250.601
20
-135.327
11
250.612
21
-135.328
0
LINE
8
BLACK
6
CONTINUOUS
10
250.612
20
-135.328
11
250.623
21
-135.332
0
LINE
8
BLACK
6
CONTINUOUS
10
250.623
20
-135.332
11
250.623
21
-135.332
0
LINE
8
BLACK
6
CONTINUOUS
10
250.623
20
-135.332
11
250.655
21
-135.341
0
LINE
8
BLACK
6
CONTINUOUS
10
250.655
20
-135.341
11
250.694
21
-135.362
0
LINE
8
BLACK
6
CONTINUOUS
10
250.694
20
-135.362
11
250.702
21
-135.369
0
LINE
8
BLACK
6
CONTINUOUS
10
250.702
20
-135.369
11
252.343
21
-136.466
0
LINE
8
BLACK
6
CONTINUOUS
10
252.343
20
-136.466
11
252.353
21
-136.471
0
LINE
8
BLACK
6
CONTINUOUS
10
252.353
20
-136.471
11
252.362
21
-136.478
0
LINE
8
BLACK
6
CONTINUOUS
10
252.362
20
-136.478
11
252.362
21
-136.478
0
LINE
8
BLACK
6
CONTINUOUS
10
252.362
20
-136.478
11
252.388
21
-136.499
0
LINE
8
BLACK
6
CONTINUOUS
10
252.388
20
-136.499
11
252.416
21
-136.534
0
LINE
8
BLACK
6
CONTINUOUS
10
252.416
20
-136.534
11
252.421
21
-136.544
0
LINE
8
BLACK
6
CONTINUOUS
10
252.421
20
-136.544
11
253.517
21
-138.184
0
LINE
8
BLACK
6
CONTINUOUS
10
253.517
20
-138.184
11
253.524
21
-138.193
0
LINE
8
BLACK
6
CONTINUOUS
10
253.524
20
-138.193
11
253.53
21
-138.203
0
LINE
8
BLACK
6
CONTINUOUS
10
253.53
20
-138.203
11
253.53
21
-138.203
0
LINE
8
BLACK
6
CONTINUOUS
10
253.53
20
-138.203
11
253.545
21
-138.232
0
LINE
8
BLACK
6
CONTINUOUS
10
253.545
20
-138.232
11
253.558
21
-138.275
0
LINE
8
BLACK
6
CONTINUOUS
10
253.558
20
-138.275
11
253.559
21
-138.286
0
LINE
8
BLACK
6
CONTINUOUS
10
253.559
20
-138.286
11
253.944
21
-140.222
0
LINE
8
BLACK
6
CONTINUOUS
10
253.944
20
-140.222
11
253.948
21
-140.232
0
LINE
8
BLACK
6
CONTINUOUS
10
253.948
20
-140.232
11
253.951
21
-140.265
0
LINE
8
BLACK
6
CONTINUOUS
10
253.951
20
-140.265
11
253.951
21
-140.265
0
LINE
8
BLACK
6
CONTINUOUS
10
253.951
20
-140.265
11
253.952
21
-140.276
0
LINE
8
BLACK
6
CONTINUOUS
10
253.952
20
-140.276
11
253.951
21
-140.288
0
LINE
8
BLACK
6
CONTINUOUS
10
253.951
20
-140.288
11
253.951
21
-142.627
0
LINE
8
BLACK
6
CONTINUOUS
10
253.951
20
-142.627
11
253.948
21
-142.661
0
LINE
8
BLACK
6
CONTINUOUS
10
253.948
20
-142.661
11
253.935
21
-142.703
0
LINE
8
BLACK
6
CONTINUOUS
10
253.935
20
-142.703
11
253.914
21
-142.742
0
LINE
8
BLACK
6
CONTINUOUS
10
253.914
20
-142.742
11
253.886
21
-142.777
0
LINE
8
BLACK
6
CONTINUOUS
10
253.886
20
-142.777
11
253.851
21
-142.805
0
LINE
8
BLACK
6
CONTINUOUS
10
253.851
20
-142.805
11
253.812
21
-142.826
0
LINE
8
BLACK
6
CONTINUOUS
10
253.812
20
-142.826
11
253.769
21
-142.839
0
LINE
8
BLACK
6
CONTINUOUS
10
253.769
20
-142.839
11
253.725
21
-142.843
0
LINE
8
BLACK
6
CONTINUOUS
10
253.725
20
-142.843
11
253.681
21
-142.839
0
LINE
8
BLACK
6
CONTINUOUS
10
253.681
20
-142.839
11
253.638
21
-142.826
0
LINE
8
BLACK
6
CONTINUOUS
10
253.638
20
-142.826
11
253.599
21
-142.805
0
LINE
8
BLACK
6
CONTINUOUS
10
253.599
20
-142.805
11
253.565
21
-142.777
0
LINE
8
BLACK
6
CONTINUOUS
10
253.565
20
-142.777
11
253.536
21
-142.742
0
LINE
8
BLACK
6
CONTINUOUS
10
253.536
20
-142.742
11
253.515
21
-142.703
0
LINE
8
BLACK
6
CONTINUOUS
10
253.515
20
-142.703
11
253.502
21
-142.661
0
LINE
8
BLACK
6
CONTINUOUS
10
253.502
20
-142.661
11
253.499
21
-142.627
0
LINE
8
BLACK
6
CONTINUOUS
10
253.499
20
-142.627
11
253.499
21
-140.299
0
LINE
8
BLACK
6
CONTINUOUS
10
253.499
20
-140.299
11
253.123
21
-138.407
0
LINE
8
BLACK
6
CONTINUOUS
10
253.123
20
-138.407
11
252.064
21
-136.823
0
LINE
8
BLACK
6
CONTINUOUS
10
252.064
20
-136.823
11
250.48
21
-135.764
0
LINE
8
BLACK
6
CONTINUOUS
10
250.48
20
-135.764
11
248.588
21
-135.388
0
LINE
8
BLACK
6
CONTINUOUS
10
248.588
20
-135.388
11
231.084
21
-135.388
0
LINE
8
BLACK
6
CONTINUOUS
10
231.084
20
-135.388
11
231.051
21
-135.384
0
LINE
8
BLACK
6
CONTINUOUS
10
231.051
20
-135.384
11
231.008
21
-135.372
0
LINE
8
BLACK
6
CONTINUOUS
10
231.008
20
-135.372
11
230.969
21
-135.351
0
LINE
8
BLACK
6
CONTINUOUS
10
230.969
20
-135.351
11
230.934
21
-135.322
0
LINE
8
BLACK
6
CONTINUOUS
10
230.934
20
-135.322
11
230.906
21
-135.288
0
LINE
8
BLACK
6
CONTINUOUS
10
230.906
20
-135.288
11
230.885
21
-135.249
0
LINE
8
BLACK
6
CONTINUOUS
10
230.885
20
-135.249
11
230.872
21
-135.206
0
LINE
8
BLACK
6
CONTINUOUS
10
230.872
20
-135.206
11
230.868
21
-135.162
0
LINE
8
BLACK
6
CONTINUOUS
10
230.868
20
-135.162
11
230.872
21
-135.118
0
LINE
8
BLACK
6
CONTINUOUS
10
230.872
20
-135.118
11
230.885
21
-135.075
0
LINE
8
BLACK
6
CONTINUOUS
10
230.885
20
-135.075
11
230.906
21
-135.036
0
LINE
8
BLACK
6
CONTINUOUS
10
230.906
20
-135.036
11
230.934
21
-135.001
0
LINE
8
BLACK
6
CONTINUOUS
10
230.934
20
-135.001
11
230.969
21
-134.973
0
LINE
8
BLACK
6
CONTINUOUS
10
230.969
20
-134.973
11
231.008
21
-134.952
0
LINE
8
BLACK
6
CONTINUOUS
10
231.008
20
-134.952
11
231.051
21
-134.939
0
LINE
8
BLACK
6
CONTINUOUS
10
231.051
20
-134.939
11
231.084
21
-134.936
0
LINE
8
BLACK
6
CONTINUOUS
10
231.084
20
-134.936
11
248.599
21
-134.936
0
LINE
8
BLACK
6
CONTINUOUS
10
248.599
20
-134.936
11
248.61
21
-134.935
0
LINE
8
BLACK
6
CONTINUOUS
10
248.61
20
-134.935
11
248.621
21
-134.936
0
LINE
8
BLACK
6
CONTINUOUS
10
169.047
20
-138.249
11
169.047
21
-138.249
0
LINE
8
BLACK
6
CONTINUOUS
10
169.047
20
-138.249
11
169.08
21
-138.252
0
LINE
8
BLACK
6
CONTINUOUS
10
169.08
20
-138.252
11
169.091
21
-138.256
0
LINE
8
BLACK
6
CONTINUOUS
10
169.091
20
-138.256
11
171.112
21
-138.658
0
LINE
8
BLACK
6
CONTINUOUS
10
171.112
20
-138.658
11
171.123
21
-138.659
0
LINE
8
BLACK
6
CONTINUOUS
10
171.123
20
-138.659
11
171.134
21
-138.662
0
LINE
8
BLACK
6
CONTINUOUS
10
171.134
20
-138.662
11
171.134
21
-138.662
0
LINE
8
BLACK
6
CONTINUOUS
10
171.134
20
-138.662
11
171.166
21
-138.672
0
LINE
8
BLACK
6
CONTINUOUS
10
171.166
20
-138.672
11
171.205
21
-138.693
0
LINE
8
BLACK
6
CONTINUOUS
10
171.205
20
-138.693
11
171.214
21
-138.7
0
LINE
8
BLACK
6
CONTINUOUS
10
171.214
20
-138.7
11
172.928
21
-139.845
0
LINE
8
BLACK
6
CONTINUOUS
10
172.928
20
-139.845
11
172.937
21
-139.85
0
LINE
8
BLACK
6
CONTINUOUS
10
172.937
20
-139.85
11
172.946
21
-139.857
0
LINE
8
BLACK
6
CONTINUOUS
10
172.946
20
-139.857
11
172.946
21
-139.857
0
LINE
8
BLACK
6
CONTINUOUS
10
172.946
20
-139.857
11
172.972
21
-139.878
0
LINE
8
BLACK
6
CONTINUOUS
10
172.972
20
-139.878
11
173
21
-139.913
0
LINE
8
BLACK
6
CONTINUOUS
10
173
20
-139.913
11
173.005
21
-139.923
0
LINE
8
BLACK
6
CONTINUOUS
10
173.005
20
-139.923
11
174.163
21
-141.655
0
LINE
8
BLACK
6
CONTINUOUS
10
174.163
20
-141.655
11
174.178
21
-141.684
0
LINE
8
BLACK
6
CONTINUOUS
10
174.178
20
-141.684
11
174.191
21
-141.727
0
LINE
8
BLACK
6
CONTINUOUS
10
174.191
20
-141.727
11
174.196
21
-141.771
0
LINE
8
BLACK
6
CONTINUOUS
10
174.196
20
-141.771
11
174.191
21
-141.815
0
LINE
8
BLACK
6
CONTINUOUS
10
174.191
20
-141.815
11
174.178
21
-141.858
0
LINE
8
BLACK
6
CONTINUOUS
10
174.178
20
-141.858
11
174.157
21
-141.897
0
LINE
8
BLACK
6
CONTINUOUS
10
174.157
20
-141.897
11
174.129
21
-141.931
0
LINE
8
BLACK
6
CONTINUOUS
10
174.129
20
-141.931
11
174.095
21
-141.96
0
LINE
8
BLACK
6
CONTINUOUS
10
174.095
20
-141.96
11
174.055
21
-141.981
0
LINE
8
BLACK
6
CONTINUOUS
10
174.055
20
-141.981
11
174.013
21
-141.994
0
LINE
8
BLACK
6
CONTINUOUS
10
174.013
20
-141.994
11
173.969
21
-141.998
0
LINE
8
BLACK
6
CONTINUOUS
10
173.969
20
-141.998
11
173.924
21
-141.994
0
LINE
8
BLACK
6
CONTINUOUS
10
173.924
20
-141.994
11
173.882
21
-141.981
0
LINE
8
BLACK
6
CONTINUOUS
10
173.882
20
-141.981
11
173.842
21
-141.96
0
LINE
8
BLACK
6
CONTINUOUS
10
173.842
20
-141.96
11
173.808
21
-141.931
0
LINE
8
BLACK
6
CONTINUOUS
10
173.808
20
-141.931
11
173.787
21
-141.906
0
LINE
8
BLACK
6
CONTINUOUS
10
173.787
20
-141.906
11
172.648
21
-140.202
0
LINE
8
BLACK
6
CONTINUOUS
10
172.648
20
-140.202
11
170.991
21
-139.094
0
LINE
8
BLACK
6
CONTINUOUS
10
170.991
20
-139.094
11
169.014
21
-138.701
0
LINE
8
BLACK
6
CONTINUOUS
10
169.014
20
-138.701
11
163.741
21
-138.701
0
LINE
8
BLACK
6
CONTINUOUS
10
163.741
20
-138.701
11
163.708
21
-138.698
0
LINE
8
BLACK
6
CONTINUOUS
10
163.708
20
-138.698
11
163.666
21
-138.685
0
LINE
8
BLACK
6
CONTINUOUS
10
163.666
20
-138.685
11
163.626
21
-138.664
0
LINE
8
BLACK
6
CONTINUOUS
10
163.626
20
-138.664
11
163.592
21
-138.636
0
LINE
8
BLACK
6
CONTINUOUS
10
163.592
20
-138.636
11
163.564
21
-138.601
0
LINE
8
BLACK
6
CONTINUOUS
10
163.564
20
-138.601
11
163.543
21
-138.562
0
LINE
8
BLACK
6
CONTINUOUS
10
163.543
20
-138.562
11
163.53
21
-138.519
0
LINE
8
BLACK
6
CONTINUOUS
10
163.53
20
-138.519
11
163.525
21
-138.475
0
LINE
8
BLACK
6
CONTINUOUS
10
163.525
20
-138.475
11
163.53
21
-138.431
0
LINE
8
BLACK
6
CONTINUOUS
10
163.53
20
-138.431
11
163.543
21
-138.388
0
LINE
8
BLACK
6
CONTINUOUS
10
163.543
20
-138.388
11
163.564
21
-138.349
0
LINE
8
BLACK
6
CONTINUOUS
10
163.564
20
-138.349
11
163.592
21
-138.315
0
LINE
8
BLACK
6
CONTINUOUS
10
163.592
20
-138.315
11
163.626
21
-138.286
0
LINE
8
BLACK
6
CONTINUOUS
10
163.626
20
-138.286
11
163.666
21
-138.265
0
LINE
8
BLACK
6
CONTINUOUS
10
163.666
20
-138.265
11
163.708
21
-138.252
0
LINE
8
BLACK
6
CONTINUOUS
10
163.708
20
-138.252
11
163.741
21
-138.249
0
LINE
8
BLACK
6
CONTINUOUS
10
163.741
20
-138.249
11
169.025
21
-138.249
0
LINE
8
BLACK
6
CONTINUOUS
10
169.025
20
-138.249
11
169.036
21
-138.248
0
LINE
8
BLACK
6
CONTINUOUS
10
169.036
20
-138.248
11
169.047
21
-138.249
0
LINE
8
BLACK
6
CONTINUOUS
10
144.192
20
-135.341
11
144.209
21
-135.447
0
LINE
8
BLACK
6
CONTINUOUS
10
144.209
20
-135.447
11
144.242
21
-135.549
0
LINE
8
BLACK
6
CONTINUOUS
10
144.242
20
-135.549
11
144.291
21
-135.645
0
LINE
8
BLACK
6
CONTINUOUS
10
144.291
20
-135.645
11
144.355
21
-135.732
0
LINE
8
BLACK
6
CONTINUOUS
10
144.355
20
-135.732
11
144.431
21
-135.808
0
LINE
8
BLACK
6
CONTINUOUS
10
144.431
20
-135.808
11
144.518
21
-135.872
0
LINE
8
BLACK
6
CONTINUOUS
10
144.518
20
-135.872
11
144.614
21
-135.921
0
LINE
8
BLACK
6
CONTINUOUS
10
144.614
20
-135.921
11
144.716
21
-135.954
0
LINE
8
BLACK
6
CONTINUOUS
10
144.716
20
-135.954
11
144.822
21
-135.971
0
LINE
8
BLACK
6
CONTINUOUS
10
144.822
20
-135.971
11
144.93
21
-135.971
0
LINE
8
BLACK
6
CONTINUOUS
10
144.93
20
-135.971
11
145.036
21
-135.954
0
LINE
8
BLACK
6
CONTINUOUS
10
145.036
20
-135.954
11
145.138
21
-135.921
0
LINE
8
BLACK
6
CONTINUOUS
10
145.138
20
-135.921
11
145.234
21
-135.872
0
LINE
8
BLACK
6
CONTINUOUS
10
145.234
20
-135.872
11
145.321
21
-135.808
0
LINE
8
BLACK
6
CONTINUOUS
10
145.321
20
-135.808
11
145.397
21
-135.732
0
LINE
8
BLACK
6
CONTINUOUS
10
145.397
20
-135.732
11
145.461
21
-135.645
0
LINE
8
BLACK
6
CONTINUOUS
10
145.461
20
-135.645
11
145.51
21
-135.549
0
LINE
8
BLACK
6
CONTINUOUS
10
145.51
20
-135.549
11
145.543
21
-135.447
0
LINE
8
BLACK
6
CONTINUOUS
10
145.543
20
-135.447
11
145.56
21
-135.341
0
LINE
8
BLACK
6
CONTINUOUS
10
145.56
20
-135.341
11
145.562
21
-135.287
0
LINE
8
BLACK
6
CONTINUOUS
10
145.562
20
-135.287
11
154.02
21
-135.287
0
LINE
8
BLACK
6
CONTINUOUS
10
154.02
20
-135.287
11
154.02
21
-137.789
0
LINE
8
BLACK
6
CONTINUOUS
10
154.02
20
-137.789
11
153.966
21
-137.791
0
LINE
8
BLACK
6
CONTINUOUS
10
153.966
20
-137.791
11
153.86
21
-137.808
0
LINE
8
BLACK
6
CONTINUOUS
10
153.86
20
-137.808
11
153.758
21
-137.841
0
LINE
8
BLACK
6
CONTINUOUS
10
153.758
20
-137.841
11
153.662
21
-137.89
0
LINE
8
BLACK
6
CONTINUOUS
10
153.662
20
-137.89
11
153.575
21
-137.954
0
LINE
8
BLACK
6
CONTINUOUS
10
153.575
20
-137.954
11
153.499
21
-138.03
0
LINE
8
BLACK
6
CONTINUOUS
10
153.499
20
-138.03
11
153.435
21
-138.117
0
LINE
8
BLACK
6
CONTINUOUS
10
153.435
20
-138.117
11
153.386
21
-138.213
0
LINE
8
BLACK
6
CONTINUOUS
10
153.386
20
-138.213
11
153.353
21
-138.315
0
LINE
8
BLACK
6
CONTINUOUS
10
153.353
20
-138.315
11
153.336
21
-138.421
0
LINE
8
BLACK
6
CONTINUOUS
10
153.336
20
-138.421
11
153.336
21
-138.529
0
LINE
8
BLACK
6
CONTINUOUS
10
153.336
20
-138.529
11
153.353
21
-138.635
0
LINE
8
BLACK
6
CONTINUOUS
10
153.353
20
-138.635
11
153.386
21
-138.737
0
LINE
8
BLACK
6
CONTINUOUS
10
153.386
20
-138.737
11
153.435
21
-138.833
0
LINE
8
BLACK
6
CONTINUOUS
10
153.435
20
-138.833
11
153.499
21
-138.92
0
LINE
8
BLACK
6
CONTINUOUS
10
153.499
20
-138.92
11
153.575
21
-138.996
0
LINE
8
BLACK
6
CONTINUOUS
10
153.575
20
-138.996
11
153.662
21
-139.06
0
LINE
8
BLACK
6
CONTINUOUS
10
153.662
20
-139.06
11
153.758
21
-139.109
0
LINE
8
BLACK
6
CONTINUOUS
10
153.758
20
-139.109
11
153.86
21
-139.142
0
LINE
8
BLACK
6
CONTINUOUS
10
153.86
20
-139.142
11
153.966
21
-139.159
0
LINE
8
BLACK
6
CONTINUOUS
10
153.966
20
-139.159
11
154.02
21
-139.161
0
LINE
8
BLACK
6
CONTINUOUS
10
154.02
20
-139.161
11
154.02
21
-141.663
0
LINE
8
BLACK
6
CONTINUOUS
10
154.02
20
-141.663
11
145.562
21
-141.663
0
LINE
8
BLACK
6
CONTINUOUS
10
145.562
20
-141.663
11
145.562
21
-141.663
0
LINE
8
BLACK
6
CONTINUOUS
10
145.562
20
-141.663
11
145.56
21
-141.609
0
LINE
8
BLACK
6
CONTINUOUS
10
145.56
20
-141.609
11
145.543
21
-141.503
0
LINE
8
BLACK
6
CONTINUOUS
10
145.543
20
-141.503
11
145.51
21
-141.4
0
LINE
8
BLACK
6
CONTINUOUS
10
145.51
20
-141.4
11
145.461
21
-141.304
0
LINE
8
BLACK
6
CONTINUOUS
10
145.461
20
-141.304
11
145.397
21
-141.217
0
LINE
8
BLACK
6
CONTINUOUS
10
145.397
20
-141.217
11
145.321
21
-141.141
0
LINE
8
BLACK
6
CONTINUOUS
10
145.321
20
-141.141
11
145.234
21
-141.078
0
LINE
8
BLACK
6
CONTINUOUS
10
145.234
20
-141.078
11
145.138
21
-141.029
0
LINE
8
BLACK
6
CONTINUOUS
10
145.138
20
-141.029
11
145.036
21
-140.996
0
LINE
8
BLACK
6
CONTINUOUS
10
145.036
20
-140.996
11
144.93
21
-140.979
0
LINE
8
BLACK
6
CONTINUOUS
10
144.93
20
-140.979
11
144.822
21
-140.979
0
LINE
8
BLACK
6
CONTINUOUS
10
144.822
20
-140.979
11
144.716
21
-140.996
0
LINE
8
BLACK
6
CONTINUOUS
10
144.716
20
-140.996
11
144.614
21
-141.029
0
LINE
8
BLACK
6
CONTINUOUS
10
144.614
20
-141.029
11
144.518
21
-141.078
0
LINE
8
BLACK
6
CONTINUOUS
10
144.518
20
-141.078
11
144.431
21
-141.141
0
LINE
8
BLACK
6
CONTINUOUS
10
144.431
20
-141.141
11
144.355
21
-141.217
0
LINE
8
BLACK
6
CONTINUOUS
10
144.355
20
-141.217
11
144.291
21
-141.304
0
LINE
8
BLACK
6
CONTINUOUS
10
144.291
20
-141.304
11
144.242
21
-141.4
0
LINE
8
BLACK
6
CONTINUOUS
10
144.242
20
-141.4
11
144.209
21
-141.503
0
LINE
8
BLACK
6
CONTINUOUS
10
144.209
20
-141.503
11
144.192
21
-141.609
0
LINE
8
BLACK
6
CONTINUOUS
10
144.192
20
-141.609
11
144.19
21
-141.663
0
LINE
8
BLACK
6
CONTINUOUS
10
144.19
20
-141.663
11
143.995
21
-141.663
0
LINE
8
BLACK
6
CONTINUOUS
10
143.995
20
-141.663
11
143.995
21
-141.664
0
LINE
8
BLACK
6
CONTINUOUS
10
143.995
20
-141.664
11
143.495
21
-141.664
0
LINE
8
BLACK
6
CONTINUOUS
10
143.495
20
-141.664
11
143.495
21
-135.288
0
LINE
8
BLACK
6
CONTINUOUS
10
143.495
20
-135.288
11
143.86
21
-135.288
0
LINE
8
BLACK
6
CONTINUOUS
10
143.86
20
-135.288
11
143.86
21
-135.287
0
LINE
8
BLACK
6
CONTINUOUS
10
143.86
20
-135.287
11
144.19
21
-135.287
0
LINE
8
BLACK
6
CONTINUOUS
10
144.19
20
-135.287
11
144.192
21
-135.341
0
LINE
8
BLACK
6
CONTINUOUS
10
154.1
20
-138.213
11
154.149
21
-138.233
0
LINE
8
BLACK
6
CONTINUOUS
10
154.149
20
-138.233
11
154.173
21
-138.249
0
LINE
8
BLACK
6
CONTINUOUS
10
154.173
20
-138.249
11
159.079
21
-138.249
0
LINE
8
BLACK
6
CONTINUOUS
10
159.079
20
-138.249
11
159.112
21
-138.252
0
LINE
8
BLACK
6
CONTINUOUS
10
159.112
20
-138.252
11
159.154
21
-138.265
0
LINE
8
BLACK
6
CONTINUOUS
10
159.154
20
-138.265
11
159.194
21
-138.286
0
LINE
8
BLACK
6
CONTINUOUS
10
159.194
20
-138.286
11
159.228
21
-138.314
0
LINE
8
BLACK
6
CONTINUOUS
10
159.228
20
-138.314
11
159.256
21
-138.349
0
LINE
8
BLACK
6
CONTINUOUS
10
159.256
20
-138.349
11
159.277
21
-138.388
0
LINE
8
BLACK
6
CONTINUOUS
10
159.277
20
-138.388
11
159.29
21
-138.431
0
LINE
8
BLACK
6
CONTINUOUS
10
159.29
20
-138.431
11
159.295
21
-138.475
0
LINE
8
BLACK
6
CONTINUOUS
10
159.295
20
-138.475
11
159.29
21
-138.519
0
LINE
8
BLACK
6
CONTINUOUS
10
159.29
20
-138.519
11
159.277
21
-138.562
0
LINE
8
BLACK
6
CONTINUOUS
10
159.277
20
-138.562
11
159.256
21
-138.601
0
LINE
8
BLACK
6
CONTINUOUS
10
159.256
20
-138.601
11
159.228
21
-138.636
0
LINE
8
BLACK
6
CONTINUOUS
10
159.228
20
-138.636
11
159.194
21
-138.664
0
LINE
8
BLACK
6
CONTINUOUS
10
159.194
20
-138.664
11
159.154
21
-138.685
0
LINE
8
BLACK
6
CONTINUOUS
10
159.154
20
-138.685
11
159.112
21
-138.698
0
LINE
8
BLACK
6
CONTINUOUS
10
159.112
20
-138.698
11
159.079
21
-138.701
0
LINE
8
BLACK
6
CONTINUOUS
10
159.079
20
-138.701
11
154.173
21
-138.701
0
LINE
8
BLACK
6
CONTINUOUS
10
154.173
20
-138.701
11
154.149
21
-138.717
0
LINE
8
BLACK
6
CONTINUOUS
10
154.149
20
-138.717
11
154.1
21
-138.737
0
LINE
8
BLACK
6
CONTINUOUS
10
154.1
20
-138.737
11
154.047
21
-138.748
0
LINE
8
BLACK
6
CONTINUOUS
10
154.047
20
-138.748
11
153.993
21
-138.748
0
LINE
8
BLACK
6
CONTINUOUS
10
153.993
20
-138.748
11
153.94
21
-138.737
0
LINE
8
BLACK
6
CONTINUOUS
10
153.94
20
-138.737
11
153.891
21
-138.717
0
LINE
8
BLACK
6
CONTINUOUS
10
153.891
20
-138.717
11
153.846
21
-138.687
0
LINE
8
BLACK
6
CONTINUOUS
10
153.846
20
-138.687
11
153.808
21
-138.649
0
LINE
8
BLACK
6
CONTINUOUS
10
153.808
20
-138.649
11
153.778
21
-138.604
0
LINE
8
BLACK
6
CONTINUOUS
10
153.778
20
-138.604
11
153.758
21
-138.555
0
LINE
8
BLACK
6
CONTINUOUS
10
153.758
20
-138.555
11
153.747
21
-138.502
0
LINE
8
BLACK
6
CONTINUOUS
10
153.747
20
-138.502
11
153.747
21
-138.448
0
LINE
8
BLACK
6
CONTINUOUS
10
153.747
20
-138.448
11
153.758
21
-138.395
0
LINE
8
BLACK
6
CONTINUOUS
10
153.758
20
-138.395
11
153.778
21
-138.346
0
LINE
8
BLACK
6
CONTINUOUS
10
153.778
20
-138.346
11
153.808
21
-138.301
0
LINE
8
BLACK
6
CONTINUOUS
10
153.808
20
-138.301
11
153.846
21
-138.263
0
LINE
8
BLACK
6
CONTINUOUS
10
153.846
20
-138.263
11
153.891
21
-138.233
0
LINE
8
BLACK
6
CONTINUOUS
10
153.891
20
-138.233
11
153.94
21
-138.213
0
LINE
8
BLACK
6
CONTINUOUS
10
153.94
20
-138.213
11
153.993
21
-138.202
0
LINE
8
BLACK
6
CONTINUOUS
10
153.993
20
-138.202
11
154.047
21
-138.202
0
LINE
8
BLACK
6
CONTINUOUS
10
154.047
20
-138.202
11
154.1
21
-138.213
0
LINE
8
BLACK
6
CONTINUOUS
10
208.732
20
-133.364
11
209.188
21
-133.553
0
LINE
8
BLACK
6
CONTINUOUS
10
209.188
20
-133.553
11
209.599
21
-133.827
0
LINE
8
BLACK
6
CONTINUOUS
10
209.599
20
-133.827
11
209.948
21
-134.176
0
LINE
8
BLACK
6
CONTINUOUS
10
209.948
20
-134.176
11
210.222
21
-134.587
0
LINE
8
BLACK
6
CONTINUOUS
10
210.222
20
-134.587
11
210.411
21
-135.043
0
LINE
8
BLACK
6
CONTINUOUS
10
210.411
20
-135.043
11
210.508
21
-135.528
0
LINE
8
BLACK
6
CONTINUOUS
10
210.508
20
-135.528
11
210.508
21
-136.022
0
LINE
8
BLACK
6
CONTINUOUS
10
210.508
20
-136.022
11
210.411
21
-136.507
0
LINE
8
BLACK
6
CONTINUOUS
10
210.411
20
-136.507
11
210.222
21
-136.963
0
LINE
8
BLACK
6
CONTINUOUS
10
210.222
20
-136.963
11
209.948
21
-137.374
0
LINE
8
BLACK
6
CONTINUOUS
10
209.948
20
-137.374
11
209.599
21
-137.723
0
LINE
8
BLACK
6
CONTINUOUS
10
209.599
20
-137.723
11
209.188
21
-137.997
0
LINE
8
BLACK
6
CONTINUOUS
10
209.188
20
-137.997
11
208.732
21
-138.186
0
LINE
8
BLACK
6
CONTINUOUS
10
208.732
20
-138.186
11
208.247
21
-138.283
0
LINE
8
BLACK
6
CONTINUOUS
10
208.247
20
-138.283
11
207.753
21
-138.283
0
LINE
8
BLACK
6
CONTINUOUS
10
207.753
20
-138.283
11
207.268
21
-138.186
0
LINE
8
BLACK
6
CONTINUOUS
10
207.268
20
-138.186
11
206.812
21
-137.997
0
LINE
8
BLACK
6
CONTINUOUS
10
206.812
20
-137.997
11
206.401
21
-137.723
0
LINE
8
BLACK
6
CONTINUOUS
10
206.401
20
-137.723
11
206.052
21
-137.374
0
LINE
8
BLACK
6
CONTINUOUS
10
206.052
20
-137.374
11
205.778
21
-136.963
0
LINE
8
BLACK
6
CONTINUOUS
10
205.778
20
-136.963
11
205.589
21
-136.507
0
LINE
8
BLACK
6
CONTINUOUS
10
205.589
20
-136.507
11
205.492
21
-136.022
0
LINE
8
BLACK
6
CONTINUOUS
10
205.492
20
-136.022
11
205.492
21
-135.528
0
LINE
8
BLACK
6
CONTINUOUS
10
205.492
20
-135.528
11
205.589
21
-135.043
0
LINE
8
BLACK
6
CONTINUOUS
10
205.589
20
-135.043
11
205.778
21
-134.587
0
LINE
8
BLACK
6
CONTINUOUS
10
205.778
20
-134.587
11
206.052
21
-134.176
0
LINE
8
BLACK
6
CONTINUOUS
10
206.052
20
-134.176
11
206.401
21
-133.827
0
LINE
8
BLACK
6
CONTINUOUS
10
206.401
20
-133.827
11
206.812
21
-133.553
0
LINE
8
BLACK
6
CONTINUOUS
10
206.812
20
-133.553
11
207.268
21
-133.364
0
LINE
8
BLACK
6
CONTINUOUS
10
207.268
20
-133.364
11
207.753
21
-133.267
0
LINE
8
BLACK
6
CONTINUOUS
10
207.753
20
-133.267
11
208.247
21
-133.267
0
LINE
8
BLACK
6
CONTINUOUS
10
208.247
20
-133.267
11
208.732
21
-133.364
0
LINE
8
BLACK
6
CONTINUOUS
10
137.127
20
-107.24
11
141.925
21
-107.24
0
LINE
8
BLACK
6
CONTINUOUS
10
141.925
20
-107.24
11
141.925
21
-107.249
0
LINE
8
BLACK
6
CONTINUOUS
10
141.925
20
-107.249
11
142.865
21
-107.249
0
LINE
8
BLACK
6
CONTINUOUS
10
142.865
20
-107.249
11
142.876
21
-107.248
0
LINE
8
BLACK
6
CONTINUOUS
10
142.876
20
-107.248
11
142.887
21
-107.249
0
LINE
8
BLACK
6
CONTINUOUS
10
142.887
20
-107.249
11
142.887
21
-107.249
0
LINE
8
BLACK
6
CONTINUOUS
10
142.887
20
-107.249
11
142.92
21
-107.252
0
LINE
8
BLACK
6
CONTINUOUS
10
142.92
20
-107.252
11
142.931
21
-107.255
0
LINE
8
BLACK
6
CONTINUOUS
10
142.931
20
-107.255
11
143.675
21
-107.403
0
LINE
8
BLACK
6
CONTINUOUS
10
143.675
20
-107.403
11
143.686
21
-107.404
0
LINE
8
BLACK
6
CONTINUOUS
10
143.686
20
-107.404
11
143.696
21
-107.408
0
LINE
8
BLACK
6
CONTINUOUS
10
143.696
20
-107.408
11
143.696
21
-107.408
0
LINE
8
BLACK
6
CONTINUOUS
10
143.696
20
-107.408
11
143.728
21
-107.417
0
LINE
8
BLACK
6
CONTINUOUS
10
143.728
20
-107.417
11
143.728
21
-107.417
0
LINE
8
BLACK
6
CONTINUOUS
10
143.728
20
-107.417
11
143.75
21
-107.429
0
LINE
8
BLACK
6
CONTINUOUS
10
143.75
20
-107.429
11
143.768
21
-107.438
0
LINE
8
BLACK
6
CONTINUOUS
10
143.768
20
-107.438
11
143.776
21
-107.445
0
LINE
8
BLACK
6
CONTINUOUS
10
143.776
20
-107.445
11
144.407
21
-107.866
0
LINE
8
BLACK
6
CONTINUOUS
10
144.407
20
-107.866
11
144.416
21
-107.872
0
LINE
8
BLACK
6
CONTINUOUS
10
144.416
20
-107.872
11
144.425
21
-107.879
0
LINE
8
BLACK
6
CONTINUOUS
10
144.425
20
-107.879
11
144.425
21
-107.879
0
LINE
8
BLACK
6
CONTINUOUS
10
144.425
20
-107.879
11
144.451
21
-107.9
0
LINE
8
BLACK
6
CONTINUOUS
10
144.451
20
-107.9
11
144.479
21
-107.934
0
LINE
8
BLACK
6
CONTINUOUS
10
144.479
20
-107.934
11
144.484
21
-107.944
0
LINE
8
BLACK
6
CONTINUOUS
10
144.484
20
-107.944
11
144.906
21
-108.575
0
LINE
8
BLACK
6
CONTINUOUS
10
144.906
20
-108.575
11
144.913
21
-108.583
0
LINE
8
BLACK
6
CONTINUOUS
10
144.913
20
-108.583
11
144.918
21
-108.593
0
LINE
8
BLACK
6
CONTINUOUS
10
144.918
20
-108.593
11
144.918
21
-108.593
0
LINE
8
BLACK
6
CONTINUOUS
10
144.918
20
-108.593
11
144.934
21
-108.622
0
LINE
8
BLACK
6
CONTINUOUS
10
144.934
20
-108.622
11
144.946
21
-108.665
0
LINE
8
BLACK
6
CONTINUOUS
10
144.946
20
-108.665
11
144.948
21
-108.676
0
LINE
8
BLACK
6
CONTINUOUS
10
144.948
20
-108.676
11
145.096
21
-109.421
0
LINE
8
BLACK
6
CONTINUOUS
10
145.096
20
-109.421
11
145.099
21
-109.43
0
LINE
8
BLACK
6
CONTINUOUS
10
145.099
20
-109.43
11
145.1
21
-109.441
0
LINE
8
BLACK
6
CONTINUOUS
10
145.1
20
-109.441
11
145.1
21
-109.442
0
LINE
8
BLACK
6
CONTINUOUS
10
145.1
20
-109.442
11
145.103
21
-109.475
0
LINE
8
BLACK
6
CONTINUOUS
10
145.103
20
-109.475
11
145.102
21
-109.487
0
LINE
8
BLACK
6
CONTINUOUS
10
145.102
20
-109.487
11
145.102
21
-135.134
0
LINE
8
BLACK
6
CONTINUOUS
10
145.102
20
-135.134
11
145.118
21
-135.158
0
LINE
8
BLACK
6
CONTINUOUS
10
145.118
20
-135.158
11
145.138
21
-135.207
0
LINE
8
BLACK
6
CONTINUOUS
10
145.138
20
-135.207
11
145.149
21
-135.26
0
LINE
8
BLACK
6
CONTINUOUS
10
145.149
20
-135.26
11
145.149
21
-135.314
0
LINE
8
BLACK
6
CONTINUOUS
10
145.149
20
-135.314
11
145.138
21
-135.367
0
LINE
8
BLACK
6
CONTINUOUS
10
145.138
20
-135.367
11
145.118
21
-135.416
0
LINE
8
BLACK
6
CONTINUOUS
10
145.118
20
-135.416
11
145.088
21
-135.461
0
LINE
8
BLACK
6
CONTINUOUS
10
145.088
20
-135.461
11
145.05
21
-135.499
0
LINE
8
BLACK
6
CONTINUOUS
10
145.05
20
-135.499
11
145.005
21
-135.529
0
LINE
8
BLACK
6
CONTINUOUS
10
145.005
20
-135.529
11
144.956
21
-135.549
0
LINE
8
BLACK
6
CONTINUOUS
10
144.956
20
-135.549
11
144.903
21
-135.56
0
LINE
8
BLACK
6
CONTINUOUS
10
144.903
20
-135.56
11
144.849
21
-135.56
0
LINE
8
BLACK
6
CONTINUOUS
10
144.849
20
-135.56
11
144.796
21
-135.549
0
LINE
8
BLACK
6
CONTINUOUS
10
144.796
20
-135.549
11
144.747
21
-135.529
0
LINE
8
BLACK
6
CONTINUOUS
10
144.747
20
-135.529
11
144.702
21
-135.499
0
LINE
8
BLACK
6
CONTINUOUS
10
144.702
20
-135.499
11
144.664
21
-135.461
0
LINE
8
BLACK
6
CONTINUOUS
10
144.664
20
-135.461
11
144.634
21
-135.416
0
LINE
8
BLACK
6
CONTINUOUS
10
144.634
20
-135.416
11
144.614
21
-135.367
0
LINE
8
BLACK
6
CONTINUOUS
10
144.614
20
-135.367
11
144.603
21
-135.314
0
LINE
8
BLACK
6
CONTINUOUS
10
144.603
20
-135.314
11
144.603
21
-135.26
0
LINE
8
BLACK
6
CONTINUOUS
10
144.603
20
-135.26
11
144.614
21
-135.207
0
LINE
8
BLACK
6
CONTINUOUS
10
144.614
20
-135.207
11
144.634
21
-135.158
0
LINE
8
BLACK
6
CONTINUOUS
10
144.634
20
-135.158
11
144.65
21
-135.134
0
LINE
8
BLACK
6
CONTINUOUS
10
144.65
20
-135.134
11
144.65
21
-109.496
0
LINE
8
BLACK
6
CONTINUOUS
10
144.65
20
-109.496
11
144.511
21
-108.797
0
LINE
8
BLACK
6
CONTINUOUS
10
144.511
20
-108.797
11
144.127
21
-108.223
0
LINE
8
BLACK
6
CONTINUOUS
10
144.127
20
-108.223
11
143.553
21
-107.84
0
LINE
8
BLACK
6
CONTINUOUS
10
143.553
20
-107.84
11
142.854
21
-107.701
0
LINE
8
BLACK
6
CONTINUOUS
10
142.854
20
-107.701
11
141.925
21
-107.701
0
LINE
8
BLACK
6
CONTINUOUS
10
141.925
20
-107.701
11
141.925
21
-107.71
0
LINE
8
BLACK
6
CONTINUOUS
10
141.925
20
-107.71
11
137.127
21
-107.71
0
LINE
8
BLACK
6
CONTINUOUS
10
137.127
20
-107.71
11
137.127
21
-107.24
0
LINE
8
BLACK
6
CONTINUOUS
10
220.341
20
-134.952
11
220.383
21
-134.965
0
LINE
8
BLACK
6
CONTINUOUS
10
220.383
20
-134.965
11
220.422
21
-134.986
0
LINE
8
BLACK
6
CONTINUOUS
10
220.422
20
-134.986
11
220.457
21
-135.014
0
LINE
8
BLACK
6
CONTINUOUS
10
220.457
20
-135.014
11
220.485
21
-135.049
0
LINE
8
BLACK
6
CONTINUOUS
10
220.485
20
-135.049
11
220.506
21
-135.088
0
LINE
8
BLACK
6
CONTINUOUS
10
220.506
20
-135.088
11
220.519
21
-135.131
0
LINE
8
BLACK
6
CONTINUOUS
10
220.519
20
-135.131
11
220.523
21
-135.175
0
LINE
8
BLACK
6
CONTINUOUS
10
220.523
20
-135.175
11
220.519
21
-135.219
0
LINE
8
BLACK
6
CONTINUOUS
10
220.519
20
-135.219
11
220.506
21
-135.262
0
LINE
8
BLACK
6
CONTINUOUS
10
220.506
20
-135.262
11
220.485
21
-135.301
0
LINE
8
BLACK
6
CONTINUOUS
10
220.485
20
-135.301
11
220.457
21
-135.335
0
LINE
8
BLACK
6
CONTINUOUS
10
220.457
20
-135.335
11
220.422
21
-135.364
0
LINE
8
BLACK
6
CONTINUOUS
10
220.422
20
-135.364
11
220.383
21
-135.385
0
LINE
8
BLACK
6
CONTINUOUS
10
220.383
20
-135.385
11
220.341
21
-135.398
0
LINE
8
BLACK
6
CONTINUOUS
10
220.341
20
-135.398
11
220.307
21
-135.401
0
LINE
8
BLACK
6
CONTINUOUS
10
220.307
20
-135.401
11
215.635
21
-135.401
0
LINE
8
BLACK
6
CONTINUOUS
10
215.635
20
-135.401
11
215.602
21
-135.398
0
LINE
8
BLACK
6
CONTINUOUS
10
215.602
20
-135.398
11
215.56
21
-135.385
0
LINE
8
BLACK
6
CONTINUOUS
10
215.56
20
-135.385
11
215.52
21
-135.364
0
LINE
8
BLACK
6
CONTINUOUS
10
215.52
20
-135.364
11
215.486
21
-135.335
0
LINE
8
BLACK
6
CONTINUOUS
10
215.486
20
-135.335
11
215.458
21
-135.301
0
LINE
8
BLACK
6
CONTINUOUS
10
215.458
20
-135.301
11
215.437
21
-135.262
0
LINE
8
BLACK
6
CONTINUOUS
10
215.437
20
-135.262
11
215.424
21
-135.219
0
LINE
8
BLACK
6
CONTINUOUS
10
215.424
20
-135.219
11
215.42
21
-135.175
0
LINE
8
BLACK
6
CONTINUOUS
10
215.42
20
-135.175
11
215.424
21
-135.131
0
LINE
8
BLACK
6
CONTINUOUS
10
215.424
20
-135.131
11
215.437
21
-135.088
0
LINE
8
BLACK
6
CONTINUOUS
10
215.437
20
-135.088
11
215.458
21
-135.049
0
LINE
8
BLACK
6
CONTINUOUS
10
215.458
20
-135.049
11
215.486
21
-135.014
0
LINE
8
BLACK
6
CONTINUOUS
10
215.486
20
-135.014
11
215.52
21
-134.986
0
LINE
8
BLACK
6
CONTINUOUS
10
215.52
20
-134.986
11
215.56
21
-134.965
0
LINE
8
BLACK
6
CONTINUOUS
10
215.56
20
-134.965
11
215.602
21
-134.952
0
LINE
8
BLACK
6
CONTINUOUS
10
215.602
20
-134.952
11
215.635
21
-134.949
0
LINE
8
BLACK
6
CONTINUOUS
10
215.635
20
-134.949
11
220.307
21
-134.949
0
LINE
8
BLACK
6
CONTINUOUS
10
220.307
20
-134.949
11
220.341
21
-134.952
0
LINE
8
BLACK
6
CONTINUOUS
10
173.632
20
-130.189
11
174.088
21
-130.378
0
LINE
8
BLACK
6
CONTINUOUS
10
174.088
20
-130.378
11
174.499
21
-130.652
0
LINE
8
BLACK
6
CONTINUOUS
10
174.499
20
-130.652
11
174.848
21
-131.001
0
LINE
8
BLACK
6
CONTINUOUS
10
174.848
20
-131.001
11
175.122
21
-131.412
0
LINE
8
BLACK
6
CONTINUOUS
10
175.122
20
-131.412
11
175.311
21
-131.868
0
LINE
8
BLACK
6
CONTINUOUS
10
175.311
20
-131.868
11
175.408
21
-132.353
0
LINE
8
BLACK
6
CONTINUOUS
10
175.408
20
-132.353
11
175.408
21
-132.847
0
LINE
8
BLACK
6
CONTINUOUS
10
175.408
20
-132.847
11
175.311
21
-133.332
0
LINE
8
BLACK
6
CONTINUOUS
10
175.311
20
-133.332
11
175.122
21
-133.788
0
LINE
8
BLACK
6
CONTINUOUS
10
175.122
20
-133.788
11
174.848
21
-134.199
0
LINE
8
BLACK
6
CONTINUOUS
10
174.848
20
-134.199
11
174.499
21
-134.548
0
LINE
8
BLACK
6
CONTINUOUS
10
174.499
20
-134.548
11
174.088
21
-134.822
0
LINE
8
BLACK
6
CONTINUOUS
10
174.088
20
-134.822
11
173.632
21
-135.011
0
LINE
8
BLACK
6
CONTINUOUS
10
173.632
20
-135.011
11
173.147
21
-135.108
0
LINE
8
BLACK
6
CONTINUOUS
10
173.147
20
-135.108
11
172.653
21
-135.108
0
LINE
8
BLACK
6
CONTINUOUS
10
172.653
20
-135.108
11
172.168
21
-135.011
0
LINE
8
BLACK
6
CONTINUOUS
10
172.168
20
-135.011
11
171.712
21
-134.822
0
LINE
8
BLACK
6
CONTINUOUS
10
171.712
20
-134.822
11
171.301
21
-134.548
0
LINE
8
BLACK
6
CONTINUOUS
10
171.301
20
-134.548
11
170.952
21
-134.199
0
LINE
8
BLACK
6
CONTINUOUS
10
170.952
20
-134.199
11
170.678
21
-133.788
0
LINE
8
BLACK
6
CONTINUOUS
10
170.678
20
-133.788
11
170.489
21
-133.332
0
LINE
8
BLACK
6
CONTINUOUS
10
170.489
20
-133.332
11
170.392
21
-132.847
0
LINE
8
BLACK
6
CONTINUOUS
10
170.392
20
-132.847
11
170.392
21
-132.353
0
LINE
8
BLACK
6
CONTINUOUS
10
170.392
20
-132.353
11
170.489
21
-131.868
0
LINE
8
BLACK
6
CONTINUOUS
10
170.489
20
-131.868
11
170.678
21
-131.412
0
LINE
8
BLACK
6
CONTINUOUS
10
170.678
20
-131.412
11
170.952
21
-131.001
0
LINE
8
BLACK
6
CONTINUOUS
10
170.952
20
-131.001
11
171.301
21
-130.652
0
LINE
8
BLACK
6
CONTINUOUS
10
171.301
20
-130.652
11
171.712
21
-130.378
0
LINE
8
BLACK
6
CONTINUOUS
10
171.712
20
-130.378
11
172.168
21
-130.189
0
LINE
8
BLACK
6
CONTINUOUS
10
172.168
20
-130.189
11
172.653
21
-130.092
0
LINE
8
BLACK
6
CONTINUOUS
10
172.653
20
-130.092
11
173.147
21
-130.092
0
LINE
8
BLACK
6
CONTINUOUS
10
173.147
20
-130.092
11
173.632
21
-130.189
0
LINE
8
BLACK
6
CONTINUOUS
10
220.341
20
-126.152
11
220.384
21
-126.165
0
LINE
8
BLACK
6
CONTINUOUS
10
220.384
20
-126.165
11
220.423
21
-126.186
0
LINE
8
BLACK
6
CONTINUOUS
10
220.423
20
-126.186
11
220.457
21
-126.214
0
LINE
8
BLACK
6
CONTINUOUS
10
220.457
20
-126.214
11
220.486
21
-126.249
0
LINE
8
BLACK
6
CONTINUOUS
10
220.486
20
-126.249
11
220.507
21
-126.288
0
LINE
8
BLACK
6
CONTINUOUS
10
220.507
20
-126.288
11
220.519
21
-126.331
0
LINE
8
BLACK
6
CONTINUOUS
10
220.519
20
-126.331
11
220.524
21
-126.375
0
LINE
8
BLACK
6
CONTINUOUS
10
220.524
20
-126.375
11
220.519
21
-126.419
0
LINE
8
BLACK
6
CONTINUOUS
10
220.519
20
-126.419
11
220.507
21
-126.462
0
LINE
8
BLACK
6
CONTINUOUS
10
220.507
20
-126.462
11
220.486
21
-126.501
0
LINE
8
BLACK
6
CONTINUOUS
10
220.486
20
-126.501
11
220.457
21
-126.536
0
LINE
8
BLACK
6
CONTINUOUS
10
220.457
20
-126.536
11
220.423
21
-126.564
0
LINE
8
BLACK
6
CONTINUOUS
10
220.423
20
-126.564
11
220.384
21
-126.585
0
LINE
8
BLACK
6
CONTINUOUS
10
220.384
20
-126.585
11
220.341
21
-126.598
0
LINE
8
BLACK
6
CONTINUOUS
10
220.341
20
-126.598
11
220.308
21
-126.601
0
LINE
8
BLACK
6
CONTINUOUS
10
220.308
20
-126.601
11
216.106
21
-126.601
0
LINE
8
BLACK
6
CONTINUOUS
10
216.106
20
-126.601
11
216.072
21
-126.598
0
LINE
8
BLACK
6
CONTINUOUS
10
216.072
20
-126.598
11
216.03
21
-126.585
0
LINE
8
BLACK
6
CONTINUOUS
10
216.03
20
-126.585
11
215.991
21
-126.564
0
LINE
8
BLACK
6
CONTINUOUS
10
215.991
20
-126.564
11
215.956
21
-126.536
0
LINE
8
BLACK
6
CONTINUOUS
10
215.956
20
-126.536
11
215.928
21
-126.501
0
LINE
8
BLACK
6
CONTINUOUS
10
215.928
20
-126.501
11
215.907
21
-126.462
0
LINE
8
BLACK
6
CONTINUOUS
10
215.907
20
-126.462
11
215.894
21
-126.419
0
LINE
8
BLACK
6
CONTINUOUS
10
215.894
20
-126.419
11
215.89
21
-126.375
0
LINE
8
BLACK
6
CONTINUOUS
10
215.89
20
-126.375
11
215.894
21
-126.331
0
LINE
8
BLACK
6
CONTINUOUS
10
215.894
20
-126.331
11
215.907
21
-126.288
0
LINE
8
BLACK
6
CONTINUOUS
10
215.907
20
-126.288
11
215.928
21
-126.249
0
LINE
8
BLACK
6
CONTINUOUS
10
215.928
20
-126.249
11
215.956
21
-126.214
0
LINE
8
BLACK
6
CONTINUOUS
10
215.956
20
-126.214
11
215.991
21
-126.186
0
LINE
8
BLACK
6
CONTINUOUS
10
215.991
20
-126.186
11
216.03
21
-126.165
0
LINE
8
BLACK
6
CONTINUOUS
10
216.03
20
-126.165
11
216.072
21
-126.152
0
LINE
8
BLACK
6
CONTINUOUS
10
216.072
20
-126.152
11
216.106
21
-126.149
0
LINE
8
BLACK
6
CONTINUOUS
10
216.106
20
-126.149
11
220.308
21
-126.149
0
LINE
8
BLACK
6
CONTINUOUS
10
220.308
20
-126.149
11
220.341
21
-126.152
0
LINE
8
BLACK
6
CONTINUOUS
10
269.482
20
-121.239
11
269.938
21
-121.428
0
LINE
8
BLACK
6
CONTINUOUS
10
269.938
20
-121.428
11
270.349
21
-121.702
0
LINE
8
BLACK
6
CONTINUOUS
10
270.349
20
-121.702
11
270.698
21
-122.051
0
LINE
8
BLACK
6
CONTINUOUS
10
270.698
20
-122.051
11
270.972
21
-122.462
0
LINE
8
BLACK
6
CONTINUOUS
10
270.972
20
-122.462
11
271.161
21
-122.918
0
LINE
8
BLACK
6
CONTINUOUS
10
271.161
20
-122.918
11
271.258
21
-123.403
0
LINE
8
BLACK
6
CONTINUOUS
10
271.258
20
-123.403
11
271.258
21
-123.897
0
LINE
8
BLACK
6
CONTINUOUS
10
271.258
20
-123.897
11
271.161
21
-124.382
0
LINE
8
BLACK
6
CONTINUOUS
10
271.161
20
-124.382
11
270.972
21
-124.838
0
LINE
8
BLACK
6
CONTINUOUS
10
270.972
20
-124.838
11
270.698
21
-125.249
0
LINE
8
BLACK
6
CONTINUOUS
10
270.698
20
-125.249
11
270.349
21
-125.598
0
LINE
8
BLACK
6
CONTINUOUS
10
270.349
20
-125.598
11
269.938
21
-125.872
0
LINE
8
BLACK
6
CONTINUOUS
10
269.938
20
-125.872
11
269.482
21
-126.061
0
LINE
8
BLACK
6
CONTINUOUS
10
269.482
20
-126.061
11
268.997
21
-126.158
0
LINE
8
BLACK
6
CONTINUOUS
10
268.997
20
-126.158
11
268.503
21
-126.158
0
LINE
8
BLACK
6
CONTINUOUS
10
268.503
20
-126.158
11
268.018
21
-126.061
0
LINE
8
BLACK
6
CONTINUOUS
10
268.018
20
-126.061
11
267.562
21
-125.872
0
LINE
8
BLACK
6
CONTINUOUS
10
267.562
20
-125.872
11
267.151
21
-125.598
0
LINE
8
BLACK
6
CONTINUOUS
10
267.151
20
-125.598
11
266.802
21
-125.249
0
LINE
8
BLACK
6
CONTINUOUS
10
266.802
20
-125.249
11
266.528
21
-124.838
0
LINE
8
BLACK
6
CONTINUOUS
10
266.528
20
-124.838
11
266.339
21
-124.382
0
LINE
8
BLACK
6
CONTINUOUS
10
266.339
20
-124.382
11
266.242
21
-123.897
0
LINE
8
BLACK
6
CONTINUOUS
10
266.242
20
-123.897
11
266.242
21
-123.403
0
LINE
8
BLACK
6
CONTINUOUS
10
266.242
20
-123.403
11
266.339
21
-122.918
0
LINE
8
BLACK
6
CONTINUOUS
10
266.339
20
-122.918
11
266.528
21
-122.462
0
LINE
8
BLACK
6
CONTINUOUS
10
266.528
20
-122.462
11
266.802
21
-122.051
0
LINE
8
BLACK
6
CONTINUOUS
10
266.802
20
-122.051
11
267.151
21
-121.702
0
LINE
8
BLACK
6
CONTINUOUS
10
267.151
20
-121.702
11
267.562
21
-121.428
0
LINE
8
BLACK
6
CONTINUOUS
10
267.562
20
-121.428
11
268.018
21
-121.239
0
LINE
8
BLACK
6
CONTINUOUS
10
268.018
20
-121.239
11
268.503
21
-121.142
0
LINE
8
BLACK
6
CONTINUOUS
10
268.503
20
-121.142
11
268.997
21
-121.142
0
LINE
8
BLACK
6
CONTINUOUS
10
268.997
20
-121.142
11
269.482
21
-121.239
0
LINE
8
BLACK
6
CONTINUOUS
10
249.274
20
-65.7274
11
249.317
21
-65.7403
0
LINE
8
BLACK
6
CONTINUOUS
10
249.317
20
-65.7403
11
249.356
21
-65.7613
0
LINE
8
BLACK
6
CONTINUOUS
10
249.356
20
-65.7613
11
249.391
21
-65.7895
0
LINE
8
BLACK
6
CONTINUOUS
10
249.391
20
-65.7895
11
249.419
21
-65.8239
0
LINE
8
BLACK
6
CONTINUOUS
10
249.419
20
-65.8239
11
249.44
21
-65.8631
0
LINE
8
BLACK
6
CONTINUOUS
10
249.44
20
-65.8631
11
249.453
21
-65.9057
0
LINE
8
BLACK
6
CONTINUOUS
10
249.453
20
-65.9057
11
249.456
21
-65.9389
0
LINE
8
BLACK
6
CONTINUOUS
10
249.456
20
-65.9389
11
249.456
21
-97.0801
0
LINE
8
BLACK
6
CONTINUOUS
10
249.456
20
-97.0801
11
249.457
21
-97.0912
0
LINE
8
BLACK
6
CONTINUOUS
10
249.457
20
-97.0912
11
249.456
21
-97.1023
0
LINE
8
BLACK
6
CONTINUOUS
10
249.456
20
-97.1023
11
249.456
21
-97.1023
0
LINE
8
BLACK
6
CONTINUOUS
10
249.456
20
-97.1023
11
249.453
21
-97.1355
0
LINE
8
BLACK
6
CONTINUOUS
10
249.453
20
-97.1355
11
249.449
21
-97.1462
0
LINE
8
BLACK
6
CONTINUOUS
10
249.449
20
-97.1462
11
249.219
21
-98.3045
0
LINE
8
BLACK
6
CONTINUOUS
10
249.219
20
-98.3045
11
249.218
21
-98.3156
0
LINE
8
BLACK
6
CONTINUOUS
10
249.218
20
-98.3156
11
249.205
21
-98.3582
0
LINE
8
BLACK
6
CONTINUOUS
10
249.205
20
-98.3582
11
249.189
21
-98.3876
0
LINE
8
BLACK
6
CONTINUOUS
10
249.189
20
-98.3876
11
249.189
21
-98.3876
0
LINE
8
BLACK
6
CONTINUOUS
10
249.189
20
-98.3876
11
249.184
21
-98.3974
0
LINE
8
BLACK
6
CONTINUOUS
10
249.184
20
-98.3974
11
249.177
21
-98.406
0
LINE
8
BLACK
6
CONTINUOUS
10
249.177
20
-98.406
11
248.521
21
-99.3881
0
LINE
8
BLACK
6
CONTINUOUS
10
248.521
20
-99.3881
11
248.516
21
-99.3979
0
LINE
8
BLACK
6
CONTINUOUS
10
248.516
20
-99.3979
11
248.487
21
-99.4323
0
LINE
8
BLACK
6
CONTINUOUS
10
248.487
20
-99.4323
11
248.462
21
-99.4535
0
LINE
8
BLACK
6
CONTINUOUS
10
248.462
20
-99.4535
11
248.462
21
-99.4535
0
LINE
8
BLACK
6
CONTINUOUS
10
248.462
20
-99.4535
11
248.453
21
-99.4605
0
LINE
8
BLACK
6
CONTINUOUS
10
248.453
20
-99.4605
11
248.443
21
-99.4658
0
LINE
8
BLACK
6
CONTINUOUS
10
248.443
20
-99.4658
11
247.461
21
-100.122
0
LINE
8
BLACK
6
CONTINUOUS
10
247.461
20
-100.122
11
247.452
21
-100.129
0
LINE
8
BLACK
6
CONTINUOUS
10
247.452
20
-100.129
11
247.413
21
-100.15
0
LINE
8
BLACK
6
CONTINUOUS
10
247.413
20
-100.15
11
247.381
21
-100.16
0
LINE
8
BLACK
6
CONTINUOUS
10
247.381
20
-100.16
11
247.381
21
-100.16
0
LINE
8
BLACK
6
CONTINUOUS
10
247.381
20
-100.16
11
247.371
21
-100.163
0
LINE
8
BLACK
6
CONTINUOUS
10
247.371
20
-100.163
11
247.36
21
-100.164
0
LINE
8
BLACK
6
CONTINUOUS
10
247.36
20
-100.164
11
246.201
21
-100.394
0
LINE
8
BLACK
6
CONTINUOUS
10
246.201
20
-100.394
11
246.19
21
-100.398
0
LINE
8
BLACK
6
CONTINUOUS
10
246.19
20
-100.398
11
246.157
21
-100.401
0
LINE
8
BLACK
6
CONTINUOUS
10
246.157
20
-100.401
11
246.157
21
-100.401
0
LINE
8
BLACK
6
CONTINUOUS
10
246.157
20
-100.401
11
246.146
21
-100.402
0
LINE
8
BLACK
6
CONTINUOUS
10
246.146
20
-100.402
11
246.135
21
-100.401
0
LINE
8
BLACK
6
CONTINUOUS
10
246.135
20
-100.401
11
245.787
21
-100.401
0
LINE
8
BLACK
6
CONTINUOUS
10
245.787
20
-100.401
11
244.632
21
-100.631
0
LINE
8
BLACK
6
CONTINUOUS
10
244.632
20
-100.631
11
243.672
21
-101.272
0
LINE
8
BLACK
6
CONTINUOUS
10
243.672
20
-101.272
11
243.031
21
-102.232
0
LINE
8
BLACK
6
CONTINUOUS
10
243.031
20
-102.232
11
242.801
21
-103.387
0
LINE
8
BLACK
6
CONTINUOUS
10
242.801
20
-103.387
11
242.801
21
-113.883
0
LINE
8
BLACK
6
CONTINUOUS
10
242.801
20
-113.883
11
242.802
21
-113.894
0
LINE
8
BLACK
6
CONTINUOUS
10
242.802
20
-113.894
11
242.801
21
-113.905
0
LINE
8
BLACK
6
CONTINUOUS
10
242.801
20
-113.905
11
242.801
21
-113.905
0
LINE
8
BLACK
6
CONTINUOUS
10
242.801
20
-113.905
11
242.798
21
-113.938
0
LINE
8
BLACK
6
CONTINUOUS
10
242.798
20
-113.938
11
242.794
21
-113.949
0
LINE
8
BLACK
6
CONTINUOUS
10
242.794
20
-113.949
11
242.519
21
-115.336
0
LINE
8
BLACK
6
CONTINUOUS
10
242.519
20
-115.336
11
242.517
21
-115.347
0
LINE
8
BLACK
6
CONTINUOUS
10
242.517
20
-115.347
11
242.504
21
-115.389
0
LINE
8
BLACK
6
CONTINUOUS
10
242.504
20
-115.389
11
242.489
21
-115.419
0
LINE
8
BLACK
6
CONTINUOUS
10
242.489
20
-115.419
11
242.489
21
-115.419
0
LINE
8
BLACK
6
CONTINUOUS
10
242.489
20
-115.419
11
242.484
21
-115.429
0
LINE
8
BLACK
6
CONTINUOUS
10
242.484
20
-115.429
11
242.476
21
-115.437
0
LINE
8
BLACK
6
CONTINUOUS
10
242.476
20
-115.437
11
241.691
21
-116.613
0
LINE
8
BLACK
6
CONTINUOUS
10
241.691
20
-116.613
11
241.685
21
-116.623
0
LINE
8
BLACK
6
CONTINUOUS
10
241.685
20
-116.623
11
241.657
21
-116.657
0
LINE
8
BLACK
6
CONTINUOUS
10
241.657
20
-116.657
11
241.631
21
-116.678
0
LINE
8
BLACK
6
CONTINUOUS
10
241.631
20
-116.678
11
241.631
21
-116.678
0
LINE
8
BLACK
6
CONTINUOUS
10
241.631
20
-116.678
11
241.623
21
-116.685
0
LINE
8
BLACK
6
CONTINUOUS
10
241.623
20
-116.685
11
241.613
21
-116.691
0
LINE
8
BLACK
6
CONTINUOUS
10
241.613
20
-116.691
11
240.437
21
-117.476
0
LINE
8
BLACK
6
CONTINUOUS
10
240.437
20
-117.476
11
240.429
21
-117.484
0
LINE
8
BLACK
6
CONTINUOUS
10
240.429
20
-117.484
11
240.389
21
-117.504
0
LINE
8
BLACK
6
CONTINUOUS
10
240.389
20
-117.504
11
240.357
21
-117.514
0
LINE
8
BLACK
6
CONTINUOUS
10
240.357
20
-117.514
11
240.357
21
-117.514
0
LINE
8
BLACK
6
CONTINUOUS
10
240.357
20
-117.514
11
240.347
21
-117.517
0
LINE
8
BLACK
6
CONTINUOUS
10
240.347
20
-117.517
11
240.336
21
-117.519
0
LINE
8
BLACK
6
CONTINUOUS
10
240.336
20
-117.519
11
238.949
21
-117.794
0
LINE
8
BLACK
6
CONTINUOUS
10
238.949
20
-117.794
11
238.938
21
-117.798
0
LINE
8
BLACK
6
CONTINUOUS
10
238.938
20
-117.798
11
238.905
21
-117.801
0
LINE
8
BLACK
6
CONTINUOUS
10
238.905
20
-117.801
11
238.905
21
-117.801
0
LINE
8
BLACK
6
CONTINUOUS
10
238.905
20
-117.801
11
238.894
21
-117.802
0
LINE
8
BLACK
6
CONTINUOUS
10
238.894
20
-117.802
11
238.883
21
-117.801
0
LINE
8
BLACK
6
CONTINUOUS
10
238.883
20
-117.801
11
231.084
21
-117.801
0
LINE
8
BLACK
6
CONTINUOUS
10
231.084
20
-117.801
11
231.051
21
-117.798
0
LINE
8
BLACK
6
CONTINUOUS
10
231.051
20
-117.798
11
231.008
21
-117.785
0
LINE
8
BLACK
6
CONTINUOUS
10
231.008
20
-117.785
11
230.969
21
-117.764
0
LINE
8
BLACK
6
CONTINUOUS
10
230.969
20
-117.764
11
230.934
21
-117.736
0
LINE
8
BLACK
6
CONTINUOUS
10
230.934
20
-117.736
11
230.906
21
-117.701
0
LINE
8
BLACK
6
CONTINUOUS
10
230.906
20
-117.701
11
230.885
21
-117.662
0
LINE
8
BLACK
6
CONTINUOUS
10
230.885
20
-117.662
11
230.872
21
-117.619
0
LINE
8
BLACK
6
CONTINUOUS
10
230.872
20
-117.619
11
230.868
21
-117.575
0
LINE
8
BLACK
6
CONTINUOUS
10
230.868
20
-117.575
11
230.872
21
-117.531
0
LINE
8
BLACK
6
CONTINUOUS
10
230.872
20
-117.531
11
230.885
21
-117.488
0
LINE
8
BLACK
6
CONTINUOUS
10
230.885
20
-117.488
11
230.906
21
-117.449
0
LINE
8
BLACK
6
CONTINUOUS
10
230.906
20
-117.449
11
230.934
21
-117.414
0
LINE
8
BLACK
6
CONTINUOUS
10
230.934
20
-117.414
11
230.969
21
-117.386
0
LINE
8
BLACK
6
CONTINUOUS
10
230.969
20
-117.386
11
231.008
21
-117.365
0
LINE
8
BLACK
6
CONTINUOUS
10
231.008
20
-117.365
11
231.051
21
-117.352
0
LINE
8
BLACK
6
CONTINUOUS
10
231.051
20
-117.352
11
231.084
21
-117.349
0
LINE
8
BLACK
6
CONTINUOUS
10
231.084
20
-117.349
11
238.871
21
-117.349
0
LINE
8
BLACK
6
CONTINUOUS
10
238.871
20
-117.349
11
240.214
21
-117.082
0
LINE
8
BLACK
6
CONTINUOUS
10
240.214
20
-117.082
11
241.334
21
-116.334
0
LINE
8
BLACK
6
CONTINUOUS
10
241.334
20
-116.334
11
242.082
21
-115.214
0
LINE
8
BLACK
6
CONTINUOUS
10
242.082
20
-115.214
11
242.349
21
-113.871
0
LINE
8
BLACK
6
CONTINUOUS
10
242.349
20
-113.871
11
242.349
21
-103.376
0
LINE
8
BLACK
6
CONTINUOUS
10
242.349
20
-103.376
11
242.348
21
-103.365
0
LINE
8
BLACK
6
CONTINUOUS
10
242.348
20
-103.365
11
242.351
21
-103.331
0
LINE
8
BLACK
6
CONTINUOUS
10
242.351
20
-103.331
11
242.351
21
-103.331
0
LINE
8
BLACK
6
CONTINUOUS
10
242.351
20
-103.331
11
242.352
21
-103.32
0
LINE
8
BLACK
6
CONTINUOUS
10
242.352
20
-103.32
11
242.356
21
-103.31
0
LINE
8
BLACK
6
CONTINUOUS
10
242.356
20
-103.31
11
242.594
21
-102.111
0
LINE
8
BLACK
6
CONTINUOUS
10
242.594
20
-102.111
11
242.595
21
-102.1
0
LINE
8
BLACK
6
CONTINUOUS
10
242.595
20
-102.1
11
242.598
21
-102.089
0
LINE
8
BLACK
6
CONTINUOUS
10
242.598
20
-102.089
11
242.598
21
-102.089
0
LINE
8
BLACK
6
CONTINUOUS
10
242.598
20
-102.089
11
242.608
21
-102.057
0
LINE
8
BLACK
6
CONTINUOUS
10
242.608
20
-102.057
11
242.629
21
-102.018
0
LINE
8
BLACK
6
CONTINUOUS
10
242.629
20
-102.018
11
242.636
21
-102.009
0
LINE
8
BLACK
6
CONTINUOUS
10
242.636
20
-102.009
11
243.315
21
-100.993
0
LINE
8
BLACK
6
CONTINUOUS
10
243.315
20
-100.993
11
243.32
21
-100.983
0
LINE
8
BLACK
6
CONTINUOUS
10
243.32
20
-100.983
11
243.328
21
-100.974
0
LINE
8
BLACK
6
CONTINUOUS
10
243.328
20
-100.974
11
243.328
21
-100.974
0
LINE
8
BLACK
6
CONTINUOUS
10
243.328
20
-100.974
11
243.349
21
-100.949
0
LINE
8
BLACK
6
CONTINUOUS
10
243.349
20
-100.949
11
243.383
21
-100.92
0
LINE
8
BLACK
6
CONTINUOUS
10
243.383
20
-100.92
11
243.393
21
-100.915
0
LINE
8
BLACK
6
CONTINUOUS
10
243.393
20
-100.915
11
244.409
21
-100.236
0
LINE
8
BLACK
6
CONTINUOUS
10
244.409
20
-100.236
11
244.418
21
-100.229
0
LINE
8
BLACK
6
CONTINUOUS
10
244.418
20
-100.229
11
244.428
21
-100.224
0
LINE
8
BLACK
6
CONTINUOUS
10
244.428
20
-100.224
11
244.428
21
-100.224
0
LINE
8
BLACK
6
CONTINUOUS
10
244.428
20
-100.224
11
244.457
21
-100.208
0
LINE
8
BLACK
6
CONTINUOUS
10
244.457
20
-100.208
11
244.489
21
-100.198
0
LINE
8
BLACK
6
CONTINUOUS
10
244.489
20
-100.198
11
244.489
21
-100.198
0
LINE
8
BLACK
6
CONTINUOUS
10
244.489
20
-100.198
11
244.5
21
-100.195
0
LINE
8
BLACK
6
CONTINUOUS
10
244.5
20
-100.195
11
244.511
21
-100.194
0
LINE
8
BLACK
6
CONTINUOUS
10
244.511
20
-100.194
11
245.71
21
-99.9556
0
LINE
8
BLACK
6
CONTINUOUS
10
245.71
20
-99.9556
11
245.72
21
-99.9524
0
LINE
8
BLACK
6
CONTINUOUS
10
245.72
20
-99.9524
11
245.731
21
-99.9513
0
LINE
8
BLACK
6
CONTINUOUS
10
245.731
20
-99.9513
11
245.731
21
-99.9513
0
LINE
8
BLACK
6
CONTINUOUS
10
245.731
20
-99.9513
11
245.734
21
-99.951
0
LINE
8
BLACK
6
CONTINUOUS
10
245.734
20
-99.951
11
245.754
21
-99.9491
0
LINE
8
BLACK
6
CONTINUOUS
10
245.754
20
-99.9491
11
245.754
21
-99.9491
0
LINE
8
BLACK
6
CONTINUOUS
10
245.754
20
-99.9491
11
245.765
21
-99.948
0
LINE
8
BLACK
6
CONTINUOUS
10
245.765
20
-99.948
11
245.776
21
-99.9491
0
LINE
8
BLACK
6
CONTINUOUS
10
245.776
20
-99.9491
11
246.124
21
-99.9491
0
LINE
8
BLACK
6
CONTINUOUS
10
246.124
20
-99.9491
11
247.238
21
-99.7275
0
LINE
8
BLACK
6
CONTINUOUS
10
247.238
20
-99.7275
11
248.164
21
-99.1089
0
LINE
8
BLACK
6
CONTINUOUS
10
248.164
20
-99.1089
11
248.782
21
-98.1832
0
LINE
8
BLACK
6
CONTINUOUS
10
248.782
20
-98.1832
11
249.004
21
-97.0689
0
LINE
8
BLACK
6
CONTINUOUS
10
249.004
20
-97.0689
11
249.004
21
-65.9389
0
LINE
8
BLACK
6
CONTINUOUS
10
249.004
20
-65.9389
11
249.007
21
-65.9057
0
LINE
8
BLACK
6
CONTINUOUS
10
249.007
20
-65.9057
11
249.02
21
-65.8631
0
LINE
8
BLACK
6
CONTINUOUS
10
249.02
20
-65.8631
11
249.041
21
-65.8239
0
LINE
8
BLACK
6
CONTINUOUS
10
249.041
20
-65.8239
11
249.069
21
-65.7895
0
LINE
8
BLACK
6
CONTINUOUS
10
249.069
20
-65.7895
11
249.104
21
-65.7613
0
LINE
8
BLACK
6
CONTINUOUS
10
249.104
20
-65.7613
11
249.143
21
-65.7403
0
LINE
8
BLACK
6
CONTINUOUS
10
249.143
20
-65.7403
11
249.186
21
-65.7274
0
LINE
8
BLACK
6
CONTINUOUS
10
249.186
20
-65.7274
11
249.23
21
-65.723
0
LINE
8
BLACK
6
CONTINUOUS
10
249.23
20
-65.723
11
249.274
21
-65.7274
0
LINE
8
BLACK
6
CONTINUOUS
10
220.346
20
-117.352
11
220.388
21
-117.365
0
LINE
8
BLACK
6
CONTINUOUS
10
220.388
20
-117.365
11
220.427
21
-117.386
0
LINE
8
BLACK
6
CONTINUOUS
10
220.427
20
-117.386
11
220.462
21
-117.414
0
LINE
8
BLACK
6
CONTINUOUS
10
220.462
20
-117.414
11
220.49
21
-117.449
0
LINE
8
BLACK
6
CONTINUOUS
10
220.49
20
-117.449
11
220.511
21
-117.488
0
LINE
8
BLACK
6
CONTINUOUS
10
220.511
20
-117.488
11
220.524
21
-117.531
0
LINE
8
BLACK
6
CONTINUOUS
10
220.524
20
-117.531
11
220.528
21
-117.575
0
LINE
8
BLACK
6
CONTINUOUS
10
220.528
20
-117.575
11
220.524
21
-117.619
0
LINE
8
BLACK
6
CONTINUOUS
10
220.524
20
-117.619
11
220.511
21
-117.662
0
LINE
8
BLACK
6
CONTINUOUS
10
220.511
20
-117.662
11
220.49
21
-117.701
0
LINE
8
BLACK
6
CONTINUOUS
10
220.49
20
-117.701
11
220.462
21
-117.736
0
LINE
8
BLACK
6
CONTINUOUS
10
220.462
20
-117.736
11
220.427
21
-117.764
0
LINE
8
BLACK
6
CONTINUOUS
10
220.427
20
-117.764
11
220.388
21
-117.785
0
LINE
8
BLACK
6
CONTINUOUS
10
220.388
20
-117.785
11
220.346
21
-117.798
0
LINE
8
BLACK
6
CONTINUOUS
10
220.346
20
-117.798
11
220.312
21
-117.801
0
LINE
8
BLACK
6
CONTINUOUS
10
220.312
20
-117.801
11
212.07
21
-117.801
0
LINE
8
BLACK
6
CONTINUOUS
10
212.07
20
-117.801
11
212.037
21
-117.798
0
LINE
8
BLACK
6
CONTINUOUS
10
212.037
20
-117.798
11
211.994
21
-117.785
0
LINE
8
BLACK
6
CONTINUOUS
10
211.994
20
-117.785
11
211.955
21
-117.764
0
LINE
8
BLACK
6
CONTINUOUS
10
211.955
20
-117.764
11
211.921
21
-117.736
0
LINE
8
BLACK
6
CONTINUOUS
10
211.921
20
-117.736
11
211.893
21
-117.701
0
LINE
8
BLACK
6
CONTINUOUS
10
211.893
20
-117.701
11
211.872
21
-117.662
0
LINE
8
BLACK
6
CONTINUOUS
10
211.872
20
-117.662
11
211.859
21
-117.619
0
LINE
8
BLACK
6
CONTINUOUS
10
211.859
20
-117.619
11
211.854
21
-117.575
0
LINE
8
BLACK
6
CONTINUOUS
10
211.854
20
-117.575
11
211.859
21
-117.531
0
LINE
8
BLACK
6
CONTINUOUS
10
211.859
20
-117.531
11
211.872
21
-117.488
0
LINE
8
BLACK
6
CONTINUOUS
10
211.872
20
-117.488
11
211.893
21
-117.449
0
LINE
8
BLACK
6
CONTINUOUS
10
211.893
20
-117.449
11
211.921
21
-117.414
0
LINE
8
BLACK
6
CONTINUOUS
10
211.921
20
-117.414
11
211.955
21
-117.386
0
LINE
8
BLACK
6
CONTINUOUS
10
211.955
20
-117.386
11
211.994
21
-117.365
0
LINE
8
BLACK
6
CONTINUOUS
10
211.994
20
-117.365
11
212.037
21
-117.352
0
LINE
8
BLACK
6
CONTINUOUS
10
212.037
20
-117.352
11
212.07
21
-117.349
0
LINE
8
BLACK
6
CONTINUOUS
10
212.07
20
-117.349
11
220.312
21
-117.349
0
LINE
8
BLACK
6
CONTINUOUS
10
220.312
20
-117.349
11
220.346
21
-117.352
0
LINE
8
BLACK
6
CONTINUOUS
10
141.925
20
-110.675
11
137.025
21
-110.675
0
LINE
8
BLACK
6
CONTINUOUS
10
137.025
20
-110.675
11
137.025
21
-107.91
0
LINE
8
BLACK
6
CONTINUOUS
10
137.025
20
-107.91
11
141.925
21
-107.91
0
LINE
8
BLACK
6
CONTINUOUS
10
141.925
20
-107.91
11
141.925
21
-110.675
0
LINE
8
BLACK
6
CONTINUOUS
10
285.282
20
-105.039
11
285.738
21
-105.228
0
LINE
8
BLACK
6
CONTINUOUS
10
285.738
20
-105.228
11
286.149
21
-105.502
0
LINE
8
BLACK
6
CONTINUOUS
10
286.149
20
-105.502
11
286.498
21
-105.851
0
LINE
8
BLACK
6
CONTINUOUS
10
286.498
20
-105.851
11
286.772
21
-106.262
0
LINE
8
BLACK
6
CONTINUOUS
10
286.772
20
-106.262
11
286.961
21
-106.718
0
LINE
8
BLACK
6
CONTINUOUS
10
286.961
20
-106.718
11
287.058
21
-107.203
0
LINE
8
BLACK
6
CONTINUOUS
10
287.058
20
-107.203
11
287.058
21
-107.697
0
LINE
8
BLACK
6
CONTINUOUS
10
287.058
20
-107.697
11
286.961
21
-108.182
0
LINE
8
BLACK
6
CONTINUOUS
10
286.961
20
-108.182
11
286.772
21
-108.638
0
LINE
8
BLACK
6
CONTINUOUS
10
286.772
20
-108.638
11
286.498
21
-109.049
0
LINE
8
BLACK
6
CONTINUOUS
10
286.498
20
-109.049
11
286.149
21
-109.398
0
LINE
8
BLACK
6
CONTINUOUS
10
286.149
20
-109.398
11
285.738
21
-109.672
0
LINE
8
BLACK
6
CONTINUOUS
10
285.738
20
-109.672
11
285.282
21
-109.861
0
LINE
8
BLACK
6
CONTINUOUS
10
285.282
20
-109.861
11
284.797
21
-109.958
0
LINE
8
BLACK
6
CONTINUOUS
10
284.797
20
-109.958
11
284.303
21
-109.958
0
LINE
8
BLACK
6
CONTINUOUS
10
284.303
20
-109.958
11
283.818
21
-109.861
0
LINE
8
BLACK
6
CONTINUOUS
10
283.818
20
-109.861
11
283.362
21
-109.672
0
LINE
8
BLACK
6
CONTINUOUS
10
283.362
20
-109.672
11
282.951
21
-109.398
0
LINE
8
BLACK
6
CONTINUOUS
10
282.951
20
-109.398
11
282.602
21
-109.049
0
LINE
8
BLACK
6
CONTINUOUS
10
282.602
20
-109.049
11
282.328
21
-108.638
0
LINE
8
BLACK
6
CONTINUOUS
10
282.328
20
-108.638
11
282.138
21
-108.182
0
LINE
8
BLACK
6
CONTINUOUS
10
282.138
20
-108.182
11
282.042
21
-107.697
0
LINE
8
BLACK
6
CONTINUOUS
10
282.042
20
-107.697
11
282.042
21
-107.203
0
LINE
8
BLACK
6
CONTINUOUS
10
282.042
20
-107.203
11
282.138
21
-106.718
0
LINE
8
BLACK
6
CONTINUOUS
10
282.138
20
-106.718
11
282.328
21
-106.262
0
LINE
8
BLACK
6
CONTINUOUS
10
282.328
20
-106.262
11
282.602
21
-105.851
0
LINE
8
BLACK
6
CONTINUOUS
10
282.602
20
-105.851
11
282.951
21
-105.502
0
LINE
8
BLACK
6
CONTINUOUS
10
282.951
20
-105.502
11
283.362
21
-105.228
0
LINE
8
BLACK
6
CONTINUOUS
10
283.362
20
-105.228
11
283.818
21
-105.039
0
LINE
8
BLACK
6
CONTINUOUS
10
283.818
20
-105.039
11
284.303
21
-104.942
0
LINE
8
BLACK
6
CONTINUOUS
10
284.303
20
-104.942
11
284.797
21
-104.942
0
LINE
8
BLACK
6
CONTINUOUS
10
284.797
20
-104.942
11
285.282
21
-105.039
0
LINE
8
BLACK
6
CONTINUOUS
10
207.182
20
-104.838
11
207.638
21
-105.028
0
LINE
8
BLACK
6
CONTINUOUS
10
207.638
20
-105.028
11
208.049
21
-105.302
0
LINE
8
BLACK
6
CONTINUOUS
10
208.049
20
-105.302
11
208.398
21
-105.651
0
LINE
8
BLACK
6
CONTINUOUS
10
208.398
20
-105.651
11
208.672
21
-106.062
0
LINE
8
BLACK
6
CONTINUOUS
10
208.672
20
-106.062
11
208.861
21
-106.518
0
LINE
8
BLACK
6
CONTINUOUS
10
208.861
20
-106.518
11
208.958
21
-107.003
0
LINE
8
BLACK
6
CONTINUOUS
10
208.958
20
-107.003
11
208.958
21
-107.497
0
LINE
8
BLACK
6
CONTINUOUS
10
208.958
20
-107.497
11
208.861
21
-107.982
0
LINE
8
BLACK
6
CONTINUOUS
10
208.861
20
-107.982
11
208.672
21
-108.438
0
LINE
8
BLACK
6
CONTINUOUS
10
208.672
20
-108.438
11
208.398
21
-108.849
0
LINE
8
BLACK
6
CONTINUOUS
10
208.398
20
-108.849
11
208.049
21
-109.198
0
LINE
8
BLACK
6
CONTINUOUS
10
208.049
20
-109.198
11
207.638
21
-109.472
0
LINE
8
BLACK
6
CONTINUOUS
10
207.638
20
-109.472
11
207.182
21
-109.661
0
LINE
8
BLACK
6
CONTINUOUS
10
207.182
20
-109.661
11
206.697
21
-109.758
0
LINE
8
BLACK
6
CONTINUOUS
10
206.697
20
-109.758
11
206.203
21
-109.758
0
LINE
8
BLACK
6
CONTINUOUS
10
206.203
20
-109.758
11
205.718
21
-109.661
0
LINE
8
BLACK
6
CONTINUOUS
10
205.718
20
-109.661
11
205.262
21
-109.472
0
LINE
8
BLACK
6
CONTINUOUS
10
205.262
20
-109.472
11
204.851
21
-109.198
0
LINE
8
BLACK
6
CONTINUOUS
10
204.851
20
-109.198
11
204.502
21
-108.849
0
LINE
8
BLACK
6
CONTINUOUS
10
204.502
20
-108.849
11
204.228
21
-108.438
0
LINE
8
BLACK
6
CONTINUOUS
10
204.228
20
-108.438
11
204.039
21
-107.982
0
LINE
8
BLACK
6
CONTINUOUS
10
204.039
20
-107.982
11
203.942
21
-107.497
0
LINE
8
BLACK
6
CONTINUOUS
10
203.942
20
-107.497
11
203.942
21
-107.003
0
LINE
8
BLACK
6
CONTINUOUS
10
203.942
20
-107.003
11
204.039
21
-106.518
0
LINE
8
BLACK
6
CONTINUOUS
10
204.039
20
-106.518
11
204.228
21
-106.062
0
LINE
8
BLACK
6
CONTINUOUS
10
204.228
20
-106.062
11
204.502
21
-105.651
0
LINE
8
BLACK
6
CONTINUOUS
10
204.502
20
-105.651
11
204.851
21
-105.302
0
LINE
8
BLACK
6
CONTINUOUS
10
204.851
20
-105.302
11
205.262
21
-105.028
0
LINE
8
BLACK
6
CONTINUOUS
10
205.262
20
-105.028
11
205.718
21
-104.838
0
LINE
8
BLACK
6
CONTINUOUS
10
205.718
20
-104.838
11
206.203
21
-104.742
0
LINE
8
BLACK
6
CONTINUOUS
10
206.203
20
-104.742
11
206.697
21
-104.742
0
LINE
8
BLACK
6
CONTINUOUS
10
206.697
20
-104.742
11
207.182
21
-104.838
0
LINE
8
BLACK
6
CONTINUOUS
10
220.319
20
-108.552
11
220.362
21
-108.565
0
LINE
8
BLACK
6
CONTINUOUS
10
220.362
20
-108.565
11
220.401
21
-108.586
0
LINE
8
BLACK
6
CONTINUOUS
10
220.401
20
-108.586
11
220.436
21
-108.614
0
LINE
8
BLACK
6
CONTINUOUS
10
220.436
20
-108.614
11
220.464
21
-108.649
0
LINE
8
BLACK
6
CONTINUOUS
10
220.464
20
-108.649
11
220.485
21
-108.688
0
LINE
8
BLACK
6
CONTINUOUS
10
220.485
20
-108.688
11
220.498
21
-108.731
0
LINE
8
BLACK
6
CONTINUOUS
10
220.498
20
-108.731
11
220.502
21
-108.775
0
LINE
8
BLACK
6
CONTINUOUS
10
220.502
20
-108.775
11
220.498
21
-108.819
0
LINE
8
BLACK
6
CONTINUOUS
10
220.498
20
-108.819
11
220.485
21
-108.862
0
LINE
8
BLACK
6
CONTINUOUS
10
220.485
20
-108.862
11
220.464
21
-108.901
0
LINE
8
BLACK
6
CONTINUOUS
10
220.464
20
-108.901
11
220.436
21
-108.936
0
LINE
8
BLACK
6
CONTINUOUS
10
220.436
20
-108.936
11
220.401
21
-108.964
0
LINE
8
BLACK
6
CONTINUOUS
10
220.401
20
-108.964
11
220.362
21
-108.985
0
LINE
8
BLACK
6
CONTINUOUS
10
220.362
20
-108.985
11
220.319
21
-108.998
0
LINE
8
BLACK
6
CONTINUOUS
10
220.319
20
-108.998
11
220.286
21
-109.001
0
LINE
8
BLACK
6
CONTINUOUS
10
220.286
20
-109.001
11
214.119
21
-109.001
0
LINE
8
BLACK
6
CONTINUOUS
10
214.119
20
-109.001
11
214.086
21
-108.998
0
LINE
8
BLACK
6
CONTINUOUS
10
214.086
20
-108.998
11
214.043
21
-108.985
0
LINE
8
BLACK
6
CONTINUOUS
10
214.043
20
-108.985
11
214.004
21
-108.964
0
LINE
8
BLACK
6
CONTINUOUS
10
214.004
20
-108.964
11
213.97
21
-108.936
0
LINE
8
BLACK
6
CONTINUOUS
10
213.97
20
-108.936
11
213.942
21
-108.901
0
LINE
8
BLACK
6
CONTINUOUS
10
213.942
20
-108.901
11
213.921
21
-108.862
0
LINE
8
BLACK
6
CONTINUOUS
10
213.921
20
-108.862
11
213.908
21
-108.819
0
LINE
8
BLACK
6
CONTINUOUS
10
213.908
20
-108.819
11
213.903
21
-108.775
0
LINE
8
BLACK
6
CONTINUOUS
10
213.903
20
-108.775
11
213.908
21
-108.731
0
LINE
8
BLACK
6
CONTINUOUS
10
213.908
20
-108.731
11
213.921
21
-108.688
0
LINE
8
BLACK
6
CONTINUOUS
10
213.921
20
-108.688
11
213.942
21
-108.649
0
LINE
8
BLACK
6
CONTINUOUS
10
213.942
20
-108.649
11
213.97
21
-108.614
0
LINE
8
BLACK
6
CONTINUOUS
10
213.97
20
-108.614
11
214.004
21
-108.586
0
LINE
8
BLACK
6
CONTINUOUS
10
214.004
20
-108.586
11
214.043
21
-108.565
0
LINE
8
BLACK
6
CONTINUOUS
10
214.043
20
-108.565
11
214.086
21
-108.552
0
LINE
8
BLACK
6
CONTINUOUS
10
214.086
20
-108.552
11
214.119
21
-108.549
0
LINE
8
BLACK
6
CONTINUOUS
10
214.119
20
-108.549
11
220.286
21
-108.549
0
LINE
8
BLACK
6
CONTINUOUS
10
220.286
20
-108.549
11
220.319
21
-108.552
0
LINE
8
BLACK
6
CONTINUOUS
10
141.925
20
-107.04
11
137.025
21
-107.04
0
LINE
8
BLACK
6
CONTINUOUS
10
137.025
20
-107.04
11
137.025
21
-104.275
0
LINE
8
BLACK
6
CONTINUOUS
10
137.025
20
-104.275
11
141.925
21
-104.275
0
LINE
8
BLACK
6
CONTINUOUS
10
141.925
20
-104.275
11
141.925
21
-107.04
0
LINE
8
BLACK
6
CONTINUOUS
10
231.719
20
-99.0423
11
231.762
21
-99.0553
0
LINE
8
BLACK
6
CONTINUOUS
10
231.762
20
-99.0553
11
231.782
21
-99.0659
0
LINE
8
BLACK
6
CONTINUOUS
10
231.782
20
-99.0659
11
232.474
21
-99.2035
0
LINE
8
BLACK
6
CONTINUOUS
10
232.474
20
-99.2035
11
232.485
21
-99.2046
0
LINE
8
BLACK
6
CONTINUOUS
10
232.485
20
-99.2046
11
232.495
21
-99.2078
0
LINE
8
BLACK
6
CONTINUOUS
10
232.495
20
-99.2078
11
232.495
21
-99.2078
0
LINE
8
BLACK
6
CONTINUOUS
10
232.495
20
-99.2078
11
232.527
21
-99.2175
0
LINE
8
BLACK
6
CONTINUOUS
10
232.527
20
-99.2175
11
232.527
21
-99.2175
0
LINE
8
BLACK
6
CONTINUOUS
10
232.527
20
-99.2175
11
232.533
21
-99.2207
0
LINE
8
BLACK
6
CONTINUOUS
10
232.533
20
-99.2207
11
232.566
21
-99.2385
0
LINE
8
BLACK
6
CONTINUOUS
10
232.566
20
-99.2385
11
232.575
21
-99.2456
0
LINE
8
BLACK
6
CONTINUOUS
10
232.575
20
-99.2456
11
233.206
21
-99.6668
0
LINE
8
BLACK
6
CONTINUOUS
10
233.206
20
-99.6668
11
233.215
21
-99.672
0
LINE
8
BLACK
6
CONTINUOUS
10
233.215
20
-99.672
11
233.224
21
-99.6791
0
LINE
8
BLACK
6
CONTINUOUS
10
233.224
20
-99.6791
11
233.224
21
-99.6791
0
LINE
8
BLACK
6
CONTINUOUS
10
233.224
20
-99.6791
11
233.25
21
-99.7003
0
LINE
8
BLACK
6
CONTINUOUS
10
233.25
20
-99.7003
11
233.278
21
-99.7347
0
LINE
8
BLACK
6
CONTINUOUS
10
233.278
20
-99.7347
11
233.283
21
-99.7445
0
LINE
8
BLACK
6
CONTINUOUS
10
233.283
20
-99.7445
11
233.704
21
-100.375
0
LINE
8
BLACK
6
CONTINUOUS
10
233.704
20
-100.375
11
233.712
21
-100.384
0
LINE
8
BLACK
6
CONTINUOUS
10
233.712
20
-100.384
11
233.717
21
-100.393
0
LINE
8
BLACK
6
CONTINUOUS
10
233.717
20
-100.393
11
233.717
21
-100.393
0
LINE
8
BLACK
6
CONTINUOUS
10
233.717
20
-100.393
11
233.732
21
-100.423
0
LINE
8
BLACK
6
CONTINUOUS
10
233.732
20
-100.423
11
233.745
21
-100.465
0
LINE
8
BLACK
6
CONTINUOUS
10
233.745
20
-100.465
11
233.746
21
-100.476
0
LINE
8
BLACK
6
CONTINUOUS
10
233.746
20
-100.476
11
233.894
21
-101.22
0
LINE
8
BLACK
6
CONTINUOUS
10
233.894
20
-101.22
11
233.898
21
-101.231
0
LINE
8
BLACK
6
CONTINUOUS
10
233.898
20
-101.231
11
233.901
21
-101.264
0
LINE
8
BLACK
6
CONTINUOUS
10
233.901
20
-101.264
11
233.901
21
-101.264
0
LINE
8
BLACK
6
CONTINUOUS
10
233.901
20
-101.264
11
233.902
21
-101.275
0
LINE
8
BLACK
6
CONTINUOUS
10
233.902
20
-101.275
11
233.901
21
-101.286
0
LINE
8
BLACK
6
CONTINUOUS
10
233.901
20
-101.286
11
233.901
21
-106.786
0
LINE
8
BLACK
6
CONTINUOUS
10
233.901
20
-106.786
11
233.898
21
-106.819
0
LINE
8
BLACK
6
CONTINUOUS
10
233.898
20
-106.819
11
233.885
21
-106.862
0
LINE
8
BLACK
6
CONTINUOUS
10
233.885
20
-106.862
11
233.864
21
-106.901
0
LINE
8
BLACK
6
CONTINUOUS
10
233.864
20
-106.901
11
233.836
21
-106.936
0
LINE
8
BLACK
6
CONTINUOUS
10
233.836
20
-106.936
11
233.801
21
-106.964
0
LINE
8
BLACK
6
CONTINUOUS
10
233.801
20
-106.964
11
233.762
21
-106.985
0
LINE
8
BLACK
6
CONTINUOUS
10
233.762
20
-106.985
11
233.719
21
-106.998
0
LINE
8
BLACK
6
CONTINUOUS
10
233.719
20
-106.998
11
233.675
21
-107.002
0
LINE
8
BLACK
6
CONTINUOUS
10
233.675
20
-107.002
11
233.631
21
-106.998
0
LINE
8
BLACK
6
CONTINUOUS
10
233.631
20
-106.998
11
233.588
21
-106.985
0
LINE
8
BLACK
6
CONTINUOUS
10
233.588
20
-106.985
11
233.549
21
-106.964
0
LINE
8
BLACK
6
CONTINUOUS
10
233.549
20
-106.964
11
233.514
21
-106.936
0
LINE
8
BLACK
6
CONTINUOUS
10
233.514
20
-106.936
11
233.486
21
-106.901
0
LINE
8
BLACK
6
CONTINUOUS
10
233.486
20
-106.901
11
233.465
21
-106.862
0
LINE
8
BLACK
6
CONTINUOUS
10
233.465
20
-106.862
11
233.452
21
-106.819
0
LINE
8
BLACK
6
CONTINUOUS
10
233.452
20
-106.819
11
233.449
21
-106.786
0
LINE
8
BLACK
6
CONTINUOUS
10
233.449
20
-106.786
11
233.449
21
-101.297
0
LINE
8
BLACK
6
CONTINUOUS
10
233.449
20
-101.297
11
233.31
21
-100.598
0
LINE
8
BLACK
6
CONTINUOUS
10
233.31
20
-100.598
11
232.926
21
-100.024
0
LINE
8
BLACK
6
CONTINUOUS
10
232.926
20
-100.024
11
232.352
21
-99.64
0
LINE
8
BLACK
6
CONTINUOUS
10
232.352
20
-99.64
11
231.62
21
-99.4944
0
LINE
8
BLACK
6
CONTINUOUS
10
231.62
20
-99.4944
11
231.608
21
-99.4909
0
LINE
8
BLACK
6
CONTINUOUS
10
231.608
20
-99.4909
11
224.064
21
-99.4909
0
LINE
8
BLACK
6
CONTINUOUS
10
224.064
20
-99.4909
11
224.031
21
-99.4876
0
LINE
8
BLACK
6
CONTINUOUS
10
224.031
20
-99.4876
11
223.988
21
-99.4747
0
LINE
8
BLACK
6
CONTINUOUS
10
223.988
20
-99.4747
11
223.949
21
-99.4537
0
LINE
8
BLACK
6
CONTINUOUS
10
223.949
20
-99.4537
11
223.914
21
-99.4255
0
LINE
8
BLACK
6
CONTINUOUS
10
223.914
20
-99.4255
11
223.886
21
-99.3911
0
LINE
8
BLACK
6
CONTINUOUS
10
223.886
20
-99.3911
11
223.865
21
-99.3519
0
LINE
8
BLACK
6
CONTINUOUS
10
223.865
20
-99.3519
11
223.852
21
-99.3093
0
LINE
8
BLACK
6
CONTINUOUS
10
223.852
20
-99.3093
11
223.848
21
-99.265
0
LINE
8
BLACK
6
CONTINUOUS
10
223.848
20
-99.265
11
223.852
21
-99.2207
0
LINE
8
BLACK
6
CONTINUOUS
10
223.852
20
-99.2207
11
223.865
21
-99.1781
0
LINE
8
BLACK
6
CONTINUOUS
10
223.865
20
-99.1781
11
223.886
21
-99.1389
0
LINE
8
BLACK
6
CONTINUOUS
10
223.886
20
-99.1389
11
223.914
21
-99.1045
0
LINE
8
BLACK
6
CONTINUOUS
10
223.914
20
-99.1045
11
223.949
21
-99.0762
0
LINE
8
BLACK
6
CONTINUOUS
10
223.949
20
-99.0762
11
223.988
21
-99.0553
0
LINE
8
BLACK
6
CONTINUOUS
10
223.988
20
-99.0553
11
224.031
21
-99.0423
0
LINE
8
BLACK
6
CONTINUOUS
10
224.031
20
-99.0423
11
224.064
21
-99.0391
0
LINE
8
BLACK
6
CONTINUOUS
10
224.064
20
-99.0391
11
231.686
21
-99.0391
0
LINE
8
BLACK
6
CONTINUOUS
10
231.686
20
-99.0391
11
231.719
21
-99.0423
0
LINE
8
BLACK
6
CONTINUOUS
10
142.032
20
-97.2885
11
142.488
21
-97.4776
0
LINE
8
BLACK
6
CONTINUOUS
10
142.488
20
-97.4776
11
142.899
21
-97.752
0
LINE
8
BLACK
6
CONTINUOUS
10
142.899
20
-97.752
11
143.248
21
-98.1013
0
LINE
8
BLACK
6
CONTINUOUS
10
143.248
20
-98.1013
11
143.522
21
-98.5121
0
LINE
8
BLACK
6
CONTINUOUS
10
143.522
20
-98.5121
11
143.711
21
-98.9685
0
LINE
8
BLACK
6
CONTINUOUS
10
143.711
20
-98.9685
11
143.808
21
-99.453
0
LINE
8
BLACK
6
CONTINUOUS
10
143.808
20
-99.453
11
143.808
21
-99.947
0
LINE
8
BLACK
6
CONTINUOUS
10
143.808
20
-99.947
11
143.711
21
-100.432
0
LINE
8
BLACK
6
CONTINUOUS
10
143.711
20
-100.432
11
143.522
21
-100.888
0
LINE
8
BLACK
6
CONTINUOUS
10
143.522
20
-100.888
11
143.248
21
-101.299
0
LINE
8
BLACK
6
CONTINUOUS
10
143.248
20
-101.299
11
142.899
21
-101.648
0
LINE
8
BLACK
6
CONTINUOUS
10
142.899
20
-101.648
11
142.488
21
-101.922
0
LINE
8
BLACK
6
CONTINUOUS
10
142.488
20
-101.922
11
142.032
21
-102.111
0
LINE
8
BLACK
6
CONTINUOUS
10
142.032
20
-102.111
11
141.547
21
-102.208
0
LINE
8
BLACK
6
CONTINUOUS
10
141.547
20
-102.208
11
141.053
21
-102.208
0
LINE
8
BLACK
6
CONTINUOUS
10
141.053
20
-102.208
11
140.568
21
-102.111
0
LINE
8
BLACK
6
CONTINUOUS
10
140.568
20
-102.111
11
140.112
21
-101.922
0
LINE
8
BLACK
6
CONTINUOUS
10
140.112
20
-101.922
11
139.701
21
-101.648
0
LINE
8
BLACK
6
CONTINUOUS
10
139.701
20
-101.648
11
139.352
21
-101.299
0
LINE
8
BLACK
6
CONTINUOUS
10
139.352
20
-101.299
11
139.078
21
-100.888
0
LINE
8
BLACK
6
CONTINUOUS
10
139.078
20
-100.888
11
138.889
21
-100.432
0
LINE
8
BLACK
6
CONTINUOUS
10
138.889
20
-100.432
11
138.792
21
-99.947
0
LINE
8
BLACK
6
CONTINUOUS
10
138.792
20
-99.947
11
138.792
21
-99.453
0
LINE
8
BLACK
6
CONTINUOUS
10
138.792
20
-99.453
11
138.889
21
-98.9685
0
LINE
8
BLACK
6
CONTINUOUS
10
138.889
20
-98.9685
11
139.078
21
-98.5121
0
LINE
8
BLACK
6
CONTINUOUS
10
139.078
20
-98.5121
11
139.352
21
-98.1013
0
LINE
8
BLACK
6
CONTINUOUS
10
139.352
20
-98.1013
11
139.701
21
-97.752
0
LINE
8
BLACK
6
CONTINUOUS
10
139.701
20
-97.752
11
140.112
21
-97.4776
0
LINE
8
BLACK
6
CONTINUOUS
10
140.112
20
-97.4776
11
140.568
21
-97.2885
0
LINE
8
BLACK
6
CONTINUOUS
10
140.568
20
-97.2885
11
141.053
21
-97.1921
0
LINE
8
BLACK
6
CONTINUOUS
10
141.053
20
-97.1921
11
141.547
21
-97.1921
0
LINE
8
BLACK
6
CONTINUOUS
10
141.547
20
-97.1921
11
142.032
21
-97.2885
0
LINE
8
BLACK
6
CONTINUOUS
10
239.682
20
-95.3885
11
240.138
21
-95.5776
0
LINE
8
BLACK
6
CONTINUOUS
10
240.138
20
-95.5776
11
240.549
21
-95.852
0
LINE
8
BLACK
6
CONTINUOUS
10
240.549
20
-95.852
11
240.898
21
-96.2013
0
LINE
8
BLACK
6
CONTINUOUS
10
240.898
20
-96.2013
11
241.172
21
-96.6121
0
LINE
8
BLACK
6
CONTINUOUS
10
241.172
20
-96.6121
11
241.361
21
-97.0685
0
LINE
8
BLACK
6
CONTINUOUS
10
241.361
20
-97.0685
11
241.458
21
-97.553
0
LINE
8
BLACK
6
CONTINUOUS
10
241.458
20
-97.553
11
241.458
21
-98.047
0
LINE
8
BLACK
6
CONTINUOUS
10
241.458
20
-98.047
11
241.361
21
-98.5315
0
LINE
8
BLACK
6
CONTINUOUS
10
241.361
20
-98.5315
11
241.172
21
-98.9879
0
LINE
8
BLACK
6
CONTINUOUS
10
241.172
20
-98.9879
11
240.898
21
-99.3987
0
LINE
8
BLACK
6
CONTINUOUS
10
240.898
20
-99.3987
11
240.549
21
-99.748
0
LINE
8
BLACK
6
CONTINUOUS
10
240.549
20
-99.748
11
240.138
21
-100.022
0
LINE
8
BLACK
6
CONTINUOUS
10
240.138
20
-100.022
11
239.682
21
-100.211
0
LINE
8
BLACK
6
CONTINUOUS
10
239.682
20
-100.211
11
239.197
21
-100.308
0
LINE
8
BLACK
6
CONTINUOUS
10
239.197
20
-100.308
11
238.703
21
-100.308
0
LINE
8
BLACK
6
CONTINUOUS
10
238.703
20
-100.308
11
238.218
21
-100.211
0
LINE
8
BLACK
6
CONTINUOUS
10
238.218
20
-100.211
11
237.762
21
-100.022
0
LINE
8
BLACK
6
CONTINUOUS
10
237.762
20
-100.022
11
237.351
21
-99.748
0
LINE
8
BLACK
6
CONTINUOUS
10
237.351
20
-99.748
11
237.002
21
-99.3987
0
LINE
8
BLACK
6
CONTINUOUS
10
237.002
20
-99.3987
11
236.728
21
-98.9879
0
LINE
8
BLACK
6
CONTINUOUS
10
236.728
20
-98.9879
11
236.539
21
-98.5315
0
LINE
8
BLACK
6
CONTINUOUS
10
236.539
20
-98.5315
11
236.442
21
-98.047
0
LINE
8
BLACK
6
CONTINUOUS
10
236.442
20
-98.047
11
236.442
21
-97.553
0
LINE
8
BLACK
6
CONTINUOUS
10
236.442
20
-97.553
11
236.539
21
-97.0685
0
LINE
8
BLACK
6
CONTINUOUS
10
236.539
20
-97.0685
11
236.728
21
-96.6121
0
LINE
8
BLACK
6
CONTINUOUS
10
236.728
20
-96.6121
11
237.002
21
-96.2013
0
LINE
8
BLACK
6
CONTINUOUS
10
237.002
20
-96.2013
11
237.351
21
-95.852
0
LINE
8
BLACK
6
CONTINUOUS
10
237.351
20
-95.852
11
237.762
21
-95.5776
0
LINE
8
BLACK
6
CONTINUOUS
10
237.762
20
-95.5776
11
238.218
21
-95.3885
0
LINE
8
BLACK
6
CONTINUOUS
10
238.218
20
-95.3885
11
238.703
21
-95.2921
0
LINE
8
BLACK
6
CONTINUOUS
10
238.703
20
-95.2921
11
239.197
21
-95.2921
0
LINE
8
BLACK
6
CONTINUOUS
10
239.197
20
-95.2921
11
239.682
21
-95.3885
0
LINE
8
BLACK
6
CONTINUOUS
10
215.339
20
-99.0524
11
215.382
21
-99.0653
0
LINE
8
BLACK
6
CONTINUOUS
10
215.382
20
-99.0653
11
215.421
21
-99.0863
0
LINE
8
BLACK
6
CONTINUOUS
10
215.421
20
-99.0863
11
215.456
21
-99.1145
0
LINE
8
BLACK
6
CONTINUOUS
10
215.456
20
-99.1145
11
215.484
21
-99.1489
0
LINE
8
BLACK
6
CONTINUOUS
10
215.484
20
-99.1489
11
215.505
21
-99.1881
0
LINE
8
BLACK
6
CONTINUOUS
10
215.505
20
-99.1881
11
215.518
21
-99.2307
0
LINE
8
BLACK
6
CONTINUOUS
10
215.518
20
-99.2307
11
215.522
21
-99.275
0
LINE
8
BLACK
6
CONTINUOUS
10
215.522
20
-99.275
11
215.518
21
-99.3193
0
LINE
8
BLACK
6
CONTINUOUS
10
215.518
20
-99.3193
11
215.505
21
-99.3619
0
LINE
8
BLACK
6
CONTINUOUS
10
215.505
20
-99.3619
11
215.484
21
-99.4011
0
LINE
8
BLACK
6
CONTINUOUS
10
215.484
20
-99.4011
11
215.456
21
-99.4355
0
LINE
8
BLACK
6
CONTINUOUS
10
215.456
20
-99.4355
11
215.421
21
-99.4637
0
LINE
8
BLACK
6
CONTINUOUS
10
215.421
20
-99.4637
11
215.382
21
-99.4847
0
LINE
8
BLACK
6
CONTINUOUS
10
215.382
20
-99.4847
11
215.339
21
-99.4976
0
LINE
8
BLACK
6
CONTINUOUS
10
215.339
20
-99.4976
11
215.306
21
-99.5009
0
LINE
8
BLACK
6
CONTINUOUS
10
215.306
20
-99.5009
11
191.639
21
-99.5009
0
LINE
8
BLACK
6
CONTINUOUS
10
191.639
20
-99.5009
11
191.606
21
-99.4976
0
LINE
8
BLACK
6
CONTINUOUS
10
191.606
20
-99.4976
11
191.563
21
-99.4847
0
LINE
8
BLACK
6
CONTINUOUS
10
191.563
20
-99.4847
11
191.524
21
-99.4637
0
LINE
8
BLACK
6
CONTINUOUS
10
191.524
20
-99.4637
11
191.489
21
-99.4355
0
LINE
8
BLACK
6
CONTINUOUS
10
191.489
20
-99.4355
11
191.461
21
-99.4011
0
LINE
8
BLACK
6
CONTINUOUS
10
191.461
20
-99.4011
11
191.44
21
-99.3619
0
LINE
8
BLACK
6
CONTINUOUS
10
191.44
20
-99.3619
11
191.427
21
-99.3193
0
LINE
8
BLACK
6
CONTINUOUS
10
191.427
20
-99.3193
11
191.423
21
-99.275
0
LINE
8
BLACK
6
CONTINUOUS
10
191.423
20
-99.275
11
191.427
21
-99.2307
0
LINE
8
BLACK
6
CONTINUOUS
10
191.427
20
-99.2307
11
191.44
21
-99.1881
0
LINE
8
BLACK
6
CONTINUOUS
10
191.44
20
-99.1881
11
191.461
21
-99.1489
0
LINE
8
BLACK
6
CONTINUOUS
10
191.461
20
-99.1489
11
191.489
21
-99.1145
0
LINE
8
BLACK
6
CONTINUOUS
10
191.489
20
-99.1145
11
191.524
21
-99.0863
0
LINE
8
BLACK
6
CONTINUOUS
10
191.524
20
-99.0863
11
191.563
21
-99.0653
0
LINE
8
BLACK
6
CONTINUOUS
10
191.563
20
-99.0653
11
191.606
21
-99.0524
0
LINE
8
BLACK
6
CONTINUOUS
10
191.606
20
-99.0524
11
191.639
21
-99.0491
0
LINE
8
BLACK
6
CONTINUOUS
10
191.639
20
-99.0491
11
215.306
21
-99.0491
0
LINE
8
BLACK
6
CONTINUOUS
10
215.306
20
-99.0491
11
215.339
21
-99.0524
0
LINE
8
BLACK
6
CONTINUOUS
10
164.732
20
-93.5385
11
165.188
21
-93.7276
0
LINE
8
BLACK
6
CONTINUOUS
10
165.188
20
-93.7276
11
165.599
21
-94.002
0
LINE
8
BLACK
6
CONTINUOUS
10
165.599
20
-94.002
11
165.948
21
-94.3513
0
LINE
8
BLACK
6
CONTINUOUS
10
165.948
20
-94.3513
11
166.222
21
-94.7621
0
LINE
8
BLACK
6
CONTINUOUS
10
166.222
20
-94.7621
11
166.411
21
-95.2185
0
LINE
8
BLACK
6
CONTINUOUS
10
166.411
20
-95.2185
11
166.508
21
-95.703
0
LINE
8
BLACK
6
CONTINUOUS
10
166.508
20
-95.703
11
166.508
21
-96.197
0
LINE
8
BLACK
6
CONTINUOUS
10
166.508
20
-96.197
11
166.411
21
-96.6815
0
LINE
8
BLACK
6
CONTINUOUS
10
166.411
20
-96.6815
11
166.222
21
-97.1379
0
LINE
8
BLACK
6
CONTINUOUS
10
166.222
20
-97.1379
11
165.948
21
-97.5487
0
LINE
8
BLACK
6
CONTINUOUS
10
165.948
20
-97.5487
11
165.599
21
-97.898
0
LINE
8
BLACK
6
CONTINUOUS
10
165.599
20
-97.898
11
165.188
21
-98.1725
0
LINE
8
BLACK
6
CONTINUOUS
10
165.188
20
-98.1725
11
164.732
21
-98.3615
0
LINE
8
BLACK
6
CONTINUOUS
10
164.732
20
-98.3615
11
164.247
21
-98.4579
0
LINE
8
BLACK
6
CONTINUOUS
10
164.247
20
-98.4579
11
163.753
21
-98.4579
0
LINE
8
BLACK
6
CONTINUOUS
10
163.753
20
-98.4579
11
163.268
21
-98.3615
0
LINE
8
BLACK
6
CONTINUOUS
10
163.268
20
-98.3615
11
162.812
21
-98.1725
0
LINE
8
BLACK
6
CONTINUOUS
10
162.812
20
-98.1725
11
162.401
21
-97.898
0
LINE
8
BLACK
6
CONTINUOUS
10
162.401
20
-97.898
11
162.052
21
-97.5487
0
LINE
8
BLACK
6
CONTINUOUS
10
162.052
20
-97.5487
11
161.778
21
-97.1379
0
LINE
8
BLACK
6
CONTINUOUS
10
161.778
20
-97.1379
11
161.589
21
-96.6815
0
LINE
8
BLACK
6
CONTINUOUS
10
161.589
20
-96.6815
11
161.492
21
-96.197
0
LINE
8
BLACK
6
CONTINUOUS
10
161.492
20
-96.197
11
161.492
21
-95.703
0
LINE
8
BLACK
6
CONTINUOUS
10
161.492
20
-95.703
11
161.589
21
-95.2185
0
LINE
8
BLACK
6
CONTINUOUS
10
161.589
20
-95.2185
11
161.778
21
-94.7621
0
LINE
8
BLACK
6
CONTINUOUS
10
161.778
20
-94.7621
11
162.052
21
-94.3513
0
LINE
8
BLACK
6
CONTINUOUS
10
162.052
20
-94.3513
11
162.401
21
-94.002
0
LINE
8
BLACK
6
CONTINUOUS
10
162.401
20
-94.002
11
162.812
21
-93.7276
0
LINE
8
BLACK
6
CONTINUOUS
10
162.812
20
-93.7276
11
163.268
21
-93.5385
0
LINE
8
BLACK
6
CONTINUOUS
10
163.268
20
-93.5385
11
163.753
21
-93.4421
0
LINE
8
BLACK
6
CONTINUOUS
10
163.753
20
-93.4421
11
164.247
21
-93.4421
0
LINE
8
BLACK
6
CONTINUOUS
10
164.247
20
-93.4421
11
164.732
21
-93.5385
0
LINE
8
BLACK
6
CONTINUOUS
10
141.925
20
-93.675
11
137.025
21
-93.675
0
LINE
8
BLACK
6
CONTINUOUS
10
137.025
20
-93.675
11
137.025
21
-90.91
0
LINE
8
BLACK
6
CONTINUOUS
10
137.025
20
-90.91
11
141.925
21
-90.91
0
LINE
8
BLACK
6
CONTINUOUS
10
141.925
20
-90.91
11
141.925
21
-93.675
0
LINE
8
BLACK
6
CONTINUOUS
10
186.811
20
-90.2741
11
186.811
21
-90.2741
0
LINE
8
BLACK
6
CONTINUOUS
10
186.811
20
-90.2741
11
186.844
21
-90.2773
0
LINE
8
BLACK
6
CONTINUOUS
10
186.844
20
-90.2773
11
186.855
21
-90.2806
0
LINE
8
BLACK
6
CONTINUOUS
10
186.855
20
-90.2806
11
187.599
21
-90.4285
0
LINE
8
BLACK
6
CONTINUOUS
10
187.599
20
-90.4285
11
187.61
21
-90.4296
0
LINE
8
BLACK
6
CONTINUOUS
10
187.61
20
-90.4296
11
187.62
21
-90.4328
0
LINE
8
BLACK
6
CONTINUOUS
10
187.62
20
-90.4328
11
187.62
21
-90.4328
0
LINE
8
BLACK
6
CONTINUOUS
10
187.62
20
-90.4328
11
187.652
21
-90.4425
0
LINE
8
BLACK
6
CONTINUOUS
10
187.652
20
-90.4425
11
187.652
21
-90.4425
0
LINE
8
BLACK
6
CONTINUOUS
10
187.652
20
-90.4425
11
187.674
21
-90.4542
0
LINE
8
BLACK
6
CONTINUOUS
10
187.674
20
-90.4542
11
187.691
21
-90.4635
0
LINE
8
BLACK
6
CONTINUOUS
10
187.691
20
-90.4635
11
187.7
21
-90.4706
0
LINE
8
BLACK
6
CONTINUOUS
10
187.7
20
-90.4706
11
188.331
21
-90.8918
0
LINE
8
BLACK
6
CONTINUOUS
10
188.331
20
-90.8918
11
188.34
21
-90.897
0
LINE
8
BLACK
6
CONTINUOUS
10
188.34
20
-90.897
11
188.349
21
-90.9041
0
LINE
8
BLACK
6
CONTINUOUS
10
188.349
20
-90.9041
11
188.349
21
-90.9041
0
LINE
8
BLACK
6
CONTINUOUS
10
188.349
20
-90.9041
11
188.375
21
-90.9253
0
LINE
8
BLACK
6
CONTINUOUS
10
188.375
20
-90.9253
11
188.403
21
-90.9597
0
LINE
8
BLACK
6
CONTINUOUS
10
188.403
20
-90.9597
11
188.408
21
-90.9695
0
LINE
8
BLACK
6
CONTINUOUS
10
188.408
20
-90.9695
11
188.829
21
-91.5999
0
LINE
8
BLACK
6
CONTINUOUS
10
188.829
20
-91.5999
11
188.837
21
-91.6085
0
LINE
8
BLACK
6
CONTINUOUS
10
188.837
20
-91.6085
11
188.842
21
-91.6183
0
LINE
8
BLACK
6
CONTINUOUS
10
188.842
20
-91.6183
11
188.842
21
-91.6183
0
LINE
8
BLACK
6
CONTINUOUS
10
188.842
20
-91.6183
11
188.857
21
-91.6477
0
LINE
8
BLACK
6
CONTINUOUS
10
188.857
20
-91.6477
11
188.87
21
-91.6903
0
LINE
8
BLACK
6
CONTINUOUS
10
188.87
20
-91.6903
11
188.871
21
-91.7014
0
LINE
8
BLACK
6
CONTINUOUS
10
188.871
20
-91.7014
11
189.024
21
-92.4668
0
LINE
8
BLACK
6
CONTINUOUS
10
189.024
20
-92.4668
11
189.027
21
-92.5
0
LINE
8
BLACK
6
CONTINUOUS
10
189.027
20
-92.5
11
189.023
21
-92.5443
0
LINE
8
BLACK
6
CONTINUOUS
10
189.023
20
-92.5443
11
189.01
21
-92.5869
0
LINE
8
BLACK
6
CONTINUOUS
10
189.01
20
-92.5869
11
188.989
21
-92.6261
0
LINE
8
BLACK
6
CONTINUOUS
10
188.989
20
-92.6261
11
188.961
21
-92.6605
0
LINE
8
BLACK
6
CONTINUOUS
10
188.961
20
-92.6605
11
188.926
21
-92.6887
0
LINE
8
BLACK
6
CONTINUOUS
10
188.926
20
-92.6887
11
188.887
21
-92.7097
0
LINE
8
BLACK
6
CONTINUOUS
10
188.887
20
-92.7097
11
188.844
21
-92.7226
0
LINE
8
BLACK
6
CONTINUOUS
10
188.844
20
-92.7226
11
188.8
21
-92.727
0
LINE
8
BLACK
6
CONTINUOUS
10
188.8
20
-92.727
11
188.756
21
-92.7226
0
LINE
8
BLACK
6
CONTINUOUS
10
188.756
20
-92.7226
11
188.713
21
-92.7097
0
LINE
8
BLACK
6
CONTINUOUS
10
188.713
20
-92.7097
11
188.674
21
-92.6887
0
LINE
8
BLACK
6
CONTINUOUS
10
188.674
20
-92.6887
11
188.639
21
-92.6605
0
LINE
8
BLACK
6
CONTINUOUS
10
188.639
20
-92.6605
11
188.611
21
-92.6261
0
LINE
8
BLACK
6
CONTINUOUS
10
188.611
20
-92.6261
11
188.59
21
-92.5869
0
LINE
8
BLACK
6
CONTINUOUS
10
188.59
20
-92.5869
11
188.581
21
-92.5549
0
LINE
8
BLACK
6
CONTINUOUS
10
188.581
20
-92.5549
11
188.435
21
-91.8228
0
LINE
8
BLACK
6
CONTINUOUS
10
188.435
20
-91.8228
11
188.051
21
-91.2487
0
LINE
8
BLACK
6
CONTINUOUS
10
188.051
20
-91.2487
11
187.477
21
-90.865
0
LINE
8
BLACK
6
CONTINUOUS
10
187.477
20
-90.865
11
186.778
21
-90.7259
0
LINE
8
BLACK
6
CONTINUOUS
10
186.778
20
-90.7259
11
180.898
21
-90.7259
0
LINE
8
BLACK
6
CONTINUOUS
10
180.898
20
-90.7259
11
180.865
21
-90.7226
0
LINE
8
BLACK
6
CONTINUOUS
10
180.865
20
-90.7226
11
180.822
21
-90.7097
0
LINE
8
BLACK
6
CONTINUOUS
10
180.822
20
-90.7097
11
180.783
21
-90.6887
0
LINE
8
BLACK
6
CONTINUOUS
10
180.783
20
-90.6887
11
180.749
21
-90.6605
0
LINE
8
BLACK
6
CONTINUOUS
10
180.749
20
-90.6605
11
180.72
21
-90.6261
0
LINE
8
BLACK
6
CONTINUOUS
10
180.72
20
-90.6261
11
180.699
21
-90.5869
0
LINE
8
BLACK
6
CONTINUOUS
10
180.699
20
-90.5869
11
180.686
21
-90.5443
0
LINE
8
BLACK
6
CONTINUOUS
10
180.686
20
-90.5443
11
180.682
21
-90.5
0
LINE
8
BLACK
6
CONTINUOUS
10
180.682
20
-90.5
11
180.686
21
-90.4557
0
LINE
8
BLACK
6
CONTINUOUS
10
180.686
20
-90.4557
11
180.699
21
-90.4131
0
LINE
8
BLACK
6
CONTINUOUS
10
180.699
20
-90.4131
11
180.72
21
-90.3739
0
LINE
8
BLACK
6
CONTINUOUS
10
180.72
20
-90.3739
11
180.749
21
-90.3395
0
LINE
8
BLACK
6
CONTINUOUS
10
180.749
20
-90.3395
11
180.783
21
-90.3112
0
LINE
8
BLACK
6
CONTINUOUS
10
180.783
20
-90.3112
11
180.822
21
-90.2903
0
LINE
8
BLACK
6
CONTINUOUS
10
180.822
20
-90.2903
11
180.865
21
-90.2773
0
LINE
8
BLACK
6
CONTINUOUS
10
180.865
20
-90.2773
11
180.898
21
-90.2741
0
LINE
8
BLACK
6
CONTINUOUS
10
180.898
20
-90.2741
11
186.789
21
-90.2741
0
LINE
8
BLACK
6
CONTINUOUS
10
186.789
20
-90.2741
11
186.8
21
-90.273
0
LINE
8
BLACK
6
CONTINUOUS
10
186.8
20
-90.273
11
186.811
21
-90.2741
0
LINE
8
BLACK
6
CONTINUOUS
10
141.425
20
-90.24
11
141.925
21
-90.24
0
LINE
8
BLACK
6
CONTINUOUS
10
141.925
20
-90.24
11
141.925
21
-90.2491
0
LINE
8
BLACK
6
CONTINUOUS
10
141.925
20
-90.2491
11
142.931
21
-90.2491
0
LINE
8
BLACK
6
CONTINUOUS
10
142.931
20
-90.2491
11
142.964
21
-90.2524
0
LINE
8
BLACK
6
CONTINUOUS
10
142.964
20
-90.2524
11
143.007
21
-90.2653
0
LINE
8
BLACK
6
CONTINUOUS
10
143.007
20
-90.2653
11
143.046
21
-90.2863
0
LINE
8
BLACK
6
CONTINUOUS
10
143.046
20
-90.2863
11
143.081
21
-90.3145
0
LINE
8
BLACK
6
CONTINUOUS
10
143.081
20
-90.3145
11
143.109
21
-90.3489
0
LINE
8
BLACK
6
CONTINUOUS
10
143.109
20
-90.3489
11
143.13
21
-90.3881
0
LINE
8
BLACK
6
CONTINUOUS
10
143.13
20
-90.3881
11
143.143
21
-90.4307
0
LINE
8
BLACK
6
CONTINUOUS
10
143.143
20
-90.4307
11
143.147
21
-90.475
0
LINE
8
BLACK
6
CONTINUOUS
10
143.147
20
-90.475
11
143.143
21
-90.5193
0
LINE
8
BLACK
6
CONTINUOUS
10
143.143
20
-90.5193
11
143.13
21
-90.5619
0
LINE
8
BLACK
6
CONTINUOUS
10
143.13
20
-90.5619
11
143.109
21
-90.6011
0
LINE
8
BLACK
6
CONTINUOUS
10
143.109
20
-90.6011
11
143.081
21
-90.6355
0
LINE
8
BLACK
6
CONTINUOUS
10
143.081
20
-90.6355
11
143.046
21
-90.6637
0
LINE
8
BLACK
6
CONTINUOUS
10
143.046
20
-90.6637
11
143.007
21
-90.6847
0
LINE
8
BLACK
6
CONTINUOUS
10
143.007
20
-90.6847
11
142.964
21
-90.6976
0
LINE
8
BLACK
6
CONTINUOUS
10
142.964
20
-90.6976
11
142.931
21
-90.7009
0
LINE
8
BLACK
6
CONTINUOUS
10
142.931
20
-90.7009
11
141.925
21
-90.7009
0
LINE
8
BLACK
6
CONTINUOUS
10
141.925
20
-90.7009
11
141.925
21
-90.71
0
LINE
8
BLACK
6
CONTINUOUS
10
141.925
20
-90.71
11
140.925
21
-90.71
0
LINE
8
BLACK
6
CONTINUOUS
10
140.925
20
-90.71
11
140.925
21
-90.71
0
LINE
8
BLACK
6
CONTINUOUS
10
140.925
20
-90.71
11
137.127
21
-90.71
0
LINE
8
BLACK
6
CONTINUOUS
10
137.127
20
-90.71
11
137.127
21
-90.24
0
LINE
8
BLACK
6
CONTINUOUS
10
137.127
20
-90.24
11
141.425
21
-90.24
0
LINE
8
BLACK
6
CONTINUOUS
10
141.425
20
-90.24
11
141.425
21
-90.24
0
LINE
8
BLACK
6
CONTINUOUS
10
169.819
20
-90.2524
11
169.862
21
-90.2653
0
LINE
8
BLACK
6
CONTINUOUS
10
169.862
20
-90.2653
11
169.901
21
-90.2863
0
LINE
8
BLACK
6
CONTINUOUS
10
169.901
20
-90.2863
11
169.936
21
-90.3145
0
LINE
8
BLACK
6
CONTINUOUS
10
169.936
20
-90.3145
11
169.964
21
-90.3489
0
LINE
8
BLACK
6
CONTINUOUS
10
169.964
20
-90.3489
11
169.985
21
-90.3881
0
LINE
8
BLACK
6
CONTINUOUS
10
169.985
20
-90.3881
11
169.998
21
-90.4307
0
LINE
8
BLACK
6
CONTINUOUS
10
169.998
20
-90.4307
11
170.002
21
-90.475
0
LINE
8
BLACK
6
CONTINUOUS
10
170.002
20
-90.475
11
169.998
21
-90.5193
0
LINE
8
BLACK
6
CONTINUOUS
10
169.998
20
-90.5193
11
169.985
21
-90.5619
0
LINE
8
BLACK
6
CONTINUOUS
10
169.985
20
-90.5619
11
169.964
21
-90.6011
0
LINE
8
BLACK
6
CONTINUOUS
10
169.964
20
-90.6011
11
169.936
21
-90.6355
0
LINE
8
BLACK
6
CONTINUOUS
10
169.936
20
-90.6355
11
169.901
21
-90.6637
0
LINE
8
BLACK
6
CONTINUOUS
10
169.901
20
-90.6637
11
169.862
21
-90.6847
0
LINE
8
BLACK
6
CONTINUOUS
10
169.862
20
-90.6847
11
169.819
21
-90.6976
0
LINE
8
BLACK
6
CONTINUOUS
10
169.819
20
-90.6976
11
169.786
21
-90.7009
0
LINE
8
BLACK
6
CONTINUOUS
10
169.786
20
-90.7009
11
166.349
21
-90.7009
0
LINE
8
BLACK
6
CONTINUOUS
10
166.349
20
-90.7009
11
166.316
21
-90.6976
0
LINE
8
BLACK
6
CONTINUOUS
10
166.316
20
-90.6976
11
166.273
21
-90.6847
0
LINE
8
BLACK
6
CONTINUOUS
10
166.273
20
-90.6847
11
166.234
21
-90.6637
0
LINE
8
BLACK
6
CONTINUOUS
10
166.234
20
-90.6637
11
166.199
21
-90.6355
0
LINE
8
BLACK
6
CONTINUOUS
10
166.199
20
-90.6355
11
166.171
21
-90.6011
0
LINE
8
BLACK
6
CONTINUOUS
10
166.171
20
-90.6011
11
166.15
21
-90.5619
0
LINE
8
BLACK
6
CONTINUOUS
10
166.15
20
-90.5619
11
166.137
21
-90.5193
0
LINE
8
BLACK
6
CONTINUOUS
10
166.137
20
-90.5193
11
166.133
21
-90.475
0
LINE
8
BLACK
6
CONTINUOUS
10
166.133
20
-90.475
11
166.137
21
-90.4307
0
LINE
8
BLACK
6
CONTINUOUS
10
166.137
20
-90.4307
11
166.15
21
-90.3881
0
LINE
8
BLACK
6
CONTINUOUS
10
166.15
20
-90.3881
11
166.171
21
-90.3489
0
LINE
8
BLACK
6
CONTINUOUS
10
166.171
20
-90.3489
11
166.199
21
-90.3145
0
LINE
8
BLACK
6
CONTINUOUS
10
166.199
20
-90.3145
11
166.234
21
-90.2863
0
LINE
8
BLACK
6
CONTINUOUS
10
166.234
20
-90.2863
11
166.273
21
-90.2653
0
LINE
8
BLACK
6
CONTINUOUS
10
166.273
20
-90.2653
11
166.316
21
-90.2524
0
LINE
8
BLACK
6
CONTINUOUS
10
166.316
20
-90.2524
11
166.349
21
-90.2491
0
LINE
8
BLACK
6
CONTINUOUS
10
166.349
20
-90.2491
11
169.786
21
-90.2491
0
LINE
8
BLACK
6
CONTINUOUS
10
169.786
20
-90.2491
11
169.819
21
-90.2524
0
LINE
8
BLACK
6
CONTINUOUS
10
161.464
20
-90.2524
11
161.507
21
-90.2653
0
LINE
8
BLACK
6
CONTINUOUS
10
161.507
20
-90.2653
11
161.546
21
-90.2863
0
LINE
8
BLACK
6
CONTINUOUS
10
161.546
20
-90.2863
11
161.581
21
-90.3145
0
LINE
8
BLACK
6
CONTINUOUS
10
161.581
20
-90.3145
11
161.609
21
-90.3489
0
LINE
8
BLACK
6
CONTINUOUS
10
161.609
20
-90.3489
11
161.63
21
-90.3881
0
LINE
8
BLACK
6
CONTINUOUS
10
161.63
20
-90.3881
11
161.643
21
-90.4307
0
LINE
8
BLACK
6
CONTINUOUS
10
161.643
20
-90.4307
11
161.647
21
-90.475
0
LINE
8
BLACK
6
CONTINUOUS
10
161.647
20
-90.475
11
161.643
21
-90.5193
0
LINE
8
BLACK
6
CONTINUOUS
10
161.643
20
-90.5193
11
161.63
21
-90.5619
0
LINE
8
BLACK
6
CONTINUOUS
10
161.63
20
-90.5619
11
161.609
21
-90.6011
0
LINE
8
BLACK
6
CONTINUOUS
10
161.609
20
-90.6011
11
161.581
21
-90.6355
0
LINE
8
BLACK
6
CONTINUOUS
10
161.581
20
-90.6355
11
161.546
21
-90.6637
0
LINE
8
BLACK
6
CONTINUOUS
10
161.546
20
-90.6637
11
161.507
21
-90.6847
0
LINE
8
BLACK
6
CONTINUOUS
10
161.507
20
-90.6847
11
161.464
21
-90.6976
0
LINE
8
BLACK
6
CONTINUOUS
10
161.464
20
-90.6976
11
161.431
21
-90.7009
0
LINE
8
BLACK
6
CONTINUOUS
10
161.431
20
-90.7009
11
157.189
21
-90.7009
0
LINE
8
BLACK
6
CONTINUOUS
10
157.189
20
-90.7009
11
157.156
21
-90.6976
0
LINE
8
BLACK
6
CONTINUOUS
10
157.156
20
-90.6976
11
157.113
21
-90.6847
0
LINE
8
BLACK
6
CONTINUOUS
10
157.113
20
-90.6847
11
157.074
21
-90.6637
0
LINE
8
BLACK
6
CONTINUOUS
10
157.074
20
-90.6637
11
157.039
21
-90.6355
0
LINE
8
BLACK
6
CONTINUOUS
10
157.039
20
-90.6355
11
157.011
21
-90.6011
0
LINE
8
BLACK
6
CONTINUOUS
10
157.011
20
-90.6011
11
156.99
21
-90.5619
0
LINE
8
BLACK
6
CONTINUOUS
10
156.99
20
-90.5619
11
156.977
21
-90.5193
0
LINE
8
BLACK
6
CONTINUOUS
10
156.977
20
-90.5193
11
156.973
21
-90.475
0
LINE
8
BLACK
6
CONTINUOUS
10
156.973
20
-90.475
11
156.977
21
-90.4307
0
LINE
8
BLACK
6
CONTINUOUS
10
156.977
20
-90.4307
11
156.99
21
-90.3881
0
LINE
8
BLACK
6
CONTINUOUS
10
156.99
20
-90.3881
11
157.011
21
-90.3489
0
LINE
8
BLACK
6
CONTINUOUS
10
157.011
20
-90.3489
11
157.039
21
-90.3145
0
LINE
8
BLACK
6
CONTINUOUS
10
157.039
20
-90.3145
11
157.074
21
-90.2863
0
LINE
8
BLACK
6
CONTINUOUS
10
157.074
20
-90.2863
11
157.113
21
-90.2653
0
LINE
8
BLACK
6
CONTINUOUS
10
157.113
20
-90.2653
11
157.156
21
-90.2524
0
LINE
8
BLACK
6
CONTINUOUS
10
157.156
20
-90.2524
11
157.189
21
-90.2491
0
LINE
8
BLACK
6
CONTINUOUS
10
157.189
20
-90.2491
11
161.431
21
-90.2491
0
LINE
8
BLACK
6
CONTINUOUS
10
161.431
20
-90.2491
11
161.464
21
-90.2524
0
LINE
8
BLACK
6
CONTINUOUS
10
152.569
20
-90.2524
11
152.612
21
-90.2653
0
LINE
8
BLACK
6
CONTINUOUS
10
152.612
20
-90.2653
11
152.651
21
-90.2863
0
LINE
8
BLACK
6
CONTINUOUS
10
152.651
20
-90.2863
11
152.686
21
-90.3145
0
LINE
8
BLACK
6
CONTINUOUS
10
152.686
20
-90.3145
11
152.714
21
-90.3489
0
LINE
8
BLACK
6
CONTINUOUS
10
152.714
20
-90.3489
11
152.735
21
-90.3881
0
LINE
8
BLACK
6
CONTINUOUS
10
152.735
20
-90.3881
11
152.748
21
-90.4307
0
LINE
8
BLACK
6
CONTINUOUS
10
152.748
20
-90.4307
11
152.752
21
-90.475
0
LINE
8
BLACK
6
CONTINUOUS
10
152.752
20
-90.475
11
152.748
21
-90.5193
0
LINE
8
BLACK
6
CONTINUOUS
10
152.748
20
-90.5193
11
152.735
21
-90.5619
0
LINE
8
BLACK
6
CONTINUOUS
10
152.735
20
-90.5619
11
152.714
21
-90.6011
0
LINE
8
BLACK
6
CONTINUOUS
10
152.714
20
-90.6011
11
152.686
21
-90.6355
0
LINE
8
BLACK
6
CONTINUOUS
10
152.686
20
-90.6355
11
152.651
21
-90.6637
0
LINE
8
BLACK
6
CONTINUOUS
10
152.651
20
-90.6637
11
152.612
21
-90.6847
0
LINE
8
BLACK
6
CONTINUOUS
10
152.612
20
-90.6847
11
152.569
21
-90.6976
0
LINE
8
BLACK
6
CONTINUOUS
10
152.569
20
-90.6976
11
152.536
21
-90.7009
0
LINE
8
BLACK
6
CONTINUOUS
10
152.536
20
-90.7009
11
147.844
21
-90.7009
0
LINE
8
BLACK
6
CONTINUOUS
10
147.844
20
-90.7009
11
147.811
21
-90.6976
0
LINE
8
BLACK
6
CONTINUOUS
10
147.811
20
-90.6976
11
147.768
21
-90.6847
0
LINE
8
BLACK
6
CONTINUOUS
10
147.768
20
-90.6847
11
147.729
21
-90.6637
0
LINE
8
BLACK
6
CONTINUOUS
10
147.729
20
-90.6637
11
147.694
21
-90.6355
0
LINE
8
BLACK
6
CONTINUOUS
10
147.694
20
-90.6355
11
147.666
21
-90.6011
0
LINE
8
BLACK
6
CONTINUOUS
10
147.666
20
-90.6011
11
147.645
21
-90.5619
0
LINE
8
BLACK
6
CONTINUOUS
10
147.645
20
-90.5619
11
147.632
21
-90.5193
0
LINE
8
BLACK
6
CONTINUOUS
10
147.632
20
-90.5193
11
147.628
21
-90.475
0
LINE
8
BLACK
6
CONTINUOUS
10
147.628
20
-90.475
11
147.632
21
-90.4307
0
LINE
8
BLACK
6
CONTINUOUS
10
147.632
20
-90.4307
11
147.645
21
-90.3881
0
LINE
8
BLACK
6
CONTINUOUS
10
147.645
20
-90.3881
11
147.666
21
-90.3489
0
LINE
8
BLACK
6
CONTINUOUS
10
147.666
20
-90.3489
11
147.694
21
-90.3145
0
LINE
8
BLACK
6
CONTINUOUS
10
147.694
20
-90.3145
11
147.729
21
-90.2863
0
LINE
8
BLACK
6
CONTINUOUS
10
147.729
20
-90.2863
11
147.768
21
-90.2653
0
LINE
8
BLACK
6
CONTINUOUS
10
147.768
20
-90.2653
11
147.811
21
-90.2524
0
LINE
8
BLACK
6
CONTINUOUS
10
147.811
20
-90.2524
11
147.844
21
-90.2491
0
LINE
8
BLACK
6
CONTINUOUS
10
147.844
20
-90.2491
11
152.536
21
-90.2491
0
LINE
8
BLACK
6
CONTINUOUS
10
152.536
20
-90.2491
11
152.569
21
-90.2524
0
LINE
8
BLACK
6
CONTINUOUS
10
141.925
20
-90.04
11
137.025
21
-90.04
0
LINE
8
BLACK
6
CONTINUOUS
10
137.025
20
-90.04
11
137.025
21
-87.275
0
LINE
8
BLACK
6
CONTINUOUS
10
137.025
20
-87.275
11
141.925
21
-87.275
0
LINE
8
BLACK
6
CONTINUOUS
10
141.925
20
-87.275
11
141.925
21
-90.04
0
LINE
8
BLACK
6
CONTINUOUS
10
154.857
20
-75.4635
11
155.313
21
-75.6525
0
LINE
8
BLACK
6
CONTINUOUS
10
155.313
20
-75.6525
11
155.724
21
-75.927
0
LINE
8
BLACK
6
CONTINUOUS
10
155.724
20
-75.927
11
156.073
21
-76.2763
0
LINE
8
BLACK
6
CONTINUOUS
10
156.073
20
-76.2763
11
156.347
21
-76.6871
0
LINE
8
BLACK
6
CONTINUOUS
10
156.347
20
-76.6871
11
156.536
21
-77.1435
0
LINE
8
BLACK
6
CONTINUOUS
10
156.536
20
-77.1435
11
156.633
21
-77.628
0
LINE
8
BLACK
6
CONTINUOUS
10
156.633
20
-77.628
11
156.633
21
-78.122
0
LINE
8
BLACK
6
CONTINUOUS
10
156.633
20
-78.122
11
156.536
21
-78.6065
0
LINE
8
BLACK
6
CONTINUOUS
10
156.536
20
-78.6065
11
156.347
21
-79.0629
0
LINE
8
BLACK
6
CONTINUOUS
10
156.347
20
-79.0629
11
156.073
21
-79.4737
0
LINE
8
BLACK
6
CONTINUOUS
10
156.073
20
-79.4737
11
155.724
21
-79.823
0
LINE
8
BLACK
6
CONTINUOUS
10
155.724
20
-79.823
11
155.313
21
-80.0974
0
LINE
8
BLACK
6
CONTINUOUS
10
155.313
20
-80.0974
11
154.857
21
-80.2865
0
LINE
8
BLACK
6
CONTINUOUS
10
154.857
20
-80.2865
11
154.372
21
-80.3829
0
LINE
8
BLACK
6
CONTINUOUS
10
154.372
20
-80.3829
11
153.878
21
-80.3829
0
LINE
8
BLACK
6
CONTINUOUS
10
153.878
20
-80.3829
11
153.393
21
-80.2865
0
LINE
8
BLACK
6
CONTINUOUS
10
153.393
20
-80.2865
11
152.937
21
-80.0974
0
LINE
8
BLACK
6
CONTINUOUS
10
152.937
20
-80.0974
11
152.526
21
-79.823
0
LINE
8
BLACK
6
CONTINUOUS
10
152.526
20
-79.823
11
152.177
21
-79.4737
0
LINE
8
BLACK
6
CONTINUOUS
10
152.177
20
-79.4737
11
151.903
21
-79.0629
0
LINE
8
BLACK
6
CONTINUOUS
10
151.903
20
-79.0629
11
151.714
21
-78.6065
0
LINE
8
BLACK
6
CONTINUOUS
10
151.714
20
-78.6065
11
151.617
21
-78.122
0
LINE
8
BLACK
6
CONTINUOUS
10
151.617
20
-78.122
11
151.617
21
-77.628
0
LINE
8
BLACK
6
CONTINUOUS
10
151.617
20
-77.628
11
151.714
21
-77.1435
0
LINE
8
BLACK
6
CONTINUOUS
10
151.714
20
-77.1435
11
151.903
21
-76.6871
0
LINE
8
BLACK
6
CONTINUOUS
10
151.903
20
-76.6871
11
152.177
21
-76.2763
0
LINE
8
BLACK
6
CONTINUOUS
10
152.177
20
-76.2763
11
152.526
21
-75.927
0
LINE
8
BLACK
6
CONTINUOUS
10
152.526
20
-75.927
11
152.937
21
-75.6525
0
LINE
8
BLACK
6
CONTINUOUS
10
152.937
20
-75.6525
11
153.393
21
-75.4635
0
LINE
8
BLACK
6
CONTINUOUS
10
153.393
20
-75.4635
11
153.878
21
-75.3671
0
LINE
8
BLACK
6
CONTINUOUS
10
153.878
20
-75.3671
11
154.372
21
-75.3671
0
LINE
8
BLACK
6
CONTINUOUS
10
154.372
20
-75.3671
11
154.857
21
-75.4635
0
LINE
8
BLACK
6
CONTINUOUS
10
181.557
20
-74.1135
11
182.013
21
-74.3026
0
LINE
8
BLACK
6
CONTINUOUS
10
182.013
20
-74.3026
11
182.424
21
-74.577
0
LINE
8
BLACK
6
CONTINUOUS
10
182.424
20
-74.577
11
182.773
21
-74.9263
0
LINE
8
BLACK
6
CONTINUOUS
10
182.773
20
-74.9263
11
183.047
21
-75.3371
0
LINE
8
BLACK
6
CONTINUOUS
10
183.047
20
-75.3371
11
183.236
21
-75.7935
0
LINE
8
BLACK
6
CONTINUOUS
10
183.236
20
-75.7935
11
183.333
21
-76.278
0
LINE
8
BLACK
6
CONTINUOUS
10
183.333
20
-76.278
11
183.333
21
-76.772
0
LINE
8
BLACK
6
CONTINUOUS
10
183.333
20
-76.772
11
183.236
21
-77.2565
0
LINE
8
BLACK
6
CONTINUOUS
10
183.236
20
-77.2565
11
183.047
21
-77.7129
0
LINE
8
BLACK
6
CONTINUOUS
10
183.047
20
-77.7129
11
182.773
21
-78.1237
0
LINE
8
BLACK
6
CONTINUOUS
10
182.773
20
-78.1237
11
182.424
21
-78.473
0
LINE
8
BLACK
6
CONTINUOUS
10
182.424
20
-78.473
11
182.013
21
-78.7474
0
LINE
8
BLACK
6
CONTINUOUS
10
182.013
20
-78.7474
11
181.557
21
-78.9365
0
LINE
8
BLACK
6
CONTINUOUS
10
181.557
20
-78.9365
11
181.072
21
-79.0329
0
LINE
8
BLACK
6
CONTINUOUS
10
181.072
20
-79.0329
11
180.578
21
-79.0329
0
LINE
8
BLACK
6
CONTINUOUS
10
180.578
20
-79.0329
11
180.093
21
-78.9365
0
LINE
8
BLACK
6
CONTINUOUS
10
180.093
20
-78.9365
11
179.637
21
-78.7474
0
LINE
8
BLACK
6
CONTINUOUS
10
179.637
20
-78.7474
11
179.226
21
-78.473
0
LINE
8
BLACK
6
CONTINUOUS
10
179.226
20
-78.473
11
178.877
21
-78.1237
0
LINE
8
BLACK
6
CONTINUOUS
10
178.877
20
-78.1237
11
178.603
21
-77.7129
0
LINE
8
BLACK
6
CONTINUOUS
10
178.603
20
-77.7129
11
178.414
21
-77.2565
0
LINE
8
BLACK
6
CONTINUOUS
10
178.414
20
-77.2565
11
178.317
21
-76.772
0
LINE
8
BLACK
6
CONTINUOUS
10
178.317
20
-76.772
11
178.317
21
-76.278
0
LINE
8
BLACK
6
CONTINUOUS
10
178.317
20
-76.278
11
178.414
21
-75.7935
0
LINE
8
BLACK
6
CONTINUOUS
10
178.414
20
-75.7935
11
178.603
21
-75.3371
0
LINE
8
BLACK
6
CONTINUOUS
10
178.603
20
-75.3371
11
178.877
21
-74.9263
0
LINE
8
BLACK
6
CONTINUOUS
10
178.877
20
-74.9263
11
179.226
21
-74.577
0
LINE
8
BLACK
6
CONTINUOUS
10
179.226
20
-74.577
11
179.637
21
-74.3026
0
LINE
8
BLACK
6
CONTINUOUS
10
179.637
20
-74.3026
11
180.093
21
-74.1135
0
LINE
8
BLACK
6
CONTINUOUS
10
180.093
20
-74.1135
11
180.578
21
-74.0171
0
LINE
8
BLACK
6
CONTINUOUS
10
180.578
20
-74.0171
11
181.072
21
-74.0171
0
LINE
8
BLACK
6
CONTINUOUS
10
181.072
20
-74.0171
11
181.557
21
-74.1135
0
LINE
8
BLACK
6
CONTINUOUS
10
282.557
20
-71.8385
11
283.013
21
-72.0275
0
LINE
8
BLACK
6
CONTINUOUS
10
283.013
20
-72.0275
11
283.424
21
-72.302
0
LINE
8
BLACK
6
CONTINUOUS
10
283.424
20
-72.302
11
283.773
21
-72.6513
0
LINE
8
BLACK
6
CONTINUOUS
10
283.773
20
-72.6513
11
284.047
21
-73.0621
0
LINE
8
BLACK
6
CONTINUOUS
10
284.047
20
-73.0621
11
284.236
21
-73.5185
0
LINE
8
BLACK
6
CONTINUOUS
10
284.236
20
-73.5185
11
284.333
21
-74.003
0
LINE
8
BLACK
6
CONTINUOUS
10
284.333
20
-74.003
11
284.333
21
-74.497
0
LINE
8
BLACK
6
CONTINUOUS
10
284.333
20
-74.497
11
284.236
21
-74.9815
0
LINE
8
BLACK
6
CONTINUOUS
10
284.236
20
-74.9815
11
284.047
21
-75.4379
0
LINE
8
BLACK
6
CONTINUOUS
10
284.047
20
-75.4379
11
283.773
21
-75.8487
0
LINE
8
BLACK
6
CONTINUOUS
10
283.773
20
-75.8487
11
283.424
21
-76.198
0
LINE
8
BLACK
6
CONTINUOUS
10
283.424
20
-76.198
11
283.013
21
-76.4724
0
LINE
8
BLACK
6
CONTINUOUS
10
283.013
20
-76.4724
11
282.557
21
-76.6615
0
LINE
8
BLACK
6
CONTINUOUS
10
282.557
20
-76.6615
11
282.072
21
-76.7579
0
LINE
8
BLACK
6
CONTINUOUS
10
282.072
20
-76.7579
11
281.578
21
-76.7579
0
LINE
8
BLACK
6
CONTINUOUS
10
281.578
20
-76.7579
11
281.093
21
-76.6615
0
LINE
8
BLACK
6
CONTINUOUS
10
281.093
20
-76.6615
11
280.637
21
-76.4724
0
LINE
8
BLACK
6
CONTINUOUS
10
280.637
20
-76.4724
11
280.226
21
-76.198
0
LINE
8
BLACK
6
CONTINUOUS
10
280.226
20
-76.198
11
279.877
21
-75.8487
0
LINE
8
BLACK
6
CONTINUOUS
10
279.877
20
-75.8487
11
279.603
21
-75.4379
0
LINE
8
BLACK
6
CONTINUOUS
10
279.603
20
-75.4379
11
279.414
21
-74.9815
0
LINE
8
BLACK
6
CONTINUOUS
10
279.414
20
-74.9815
11
279.317
21
-74.497
0
LINE
8
BLACK
6
CONTINUOUS
10
279.317
20
-74.497
11
279.317
21
-74.003
0
LINE
8
BLACK
6
CONTINUOUS
10
279.317
20
-74.003
11
279.414
21
-73.5185
0
LINE
8
BLACK
6
CONTINUOUS
10
279.414
20
-73.5185
11
279.603
21
-73.0621
0
LINE
8
BLACK
6
CONTINUOUS
10
279.603
20
-73.0621
11
279.877
21
-72.6513
0
LINE
8
BLACK
6
CONTINUOUS
10
279.877
20
-72.6513
11
280.226
21
-72.302
0
LINE
8
BLACK
6
CONTINUOUS
10
280.226
20
-72.302
11
280.637
21
-72.0275
0
LINE
8
BLACK
6
CONTINUOUS
10
280.637
20
-72.0275
11
281.093
21
-71.8385
0
LINE
8
BLACK
6
CONTINUOUS
10
281.093
20
-71.8385
11
281.578
21
-71.7421
0
LINE
8
BLACK
6
CONTINUOUS
10
281.578
20
-71.7421
11
282.072
21
-71.7421
0
LINE
8
BLACK
6
CONTINUOUS
10
282.072
20
-71.7421
11
282.557
21
-71.8385
0
LINE
8
BLACK
6
CONTINUOUS
10
154.569
20
-60.2325
11
154.612
21
-60.2454
0
LINE
8
BLACK
6
CONTINUOUS
10
154.612
20
-60.2454
11
154.651
21
-60.2664
0
LINE
8
BLACK
6
CONTINUOUS
10
154.651
20
-60.2664
11
154.686
21
-60.2946
0
LINE
8
BLACK
6
CONTINUOUS
10
154.686
20
-60.2946
11
154.714
21
-60.329
0
LINE
8
BLACK
6
CONTINUOUS
10
154.714
20
-60.329
11
154.735
21
-60.3682
0
LINE
8
BLACK
6
CONTINUOUS
10
154.735
20
-60.3682
11
154.748
21
-60.4108
0
LINE
8
BLACK
6
CONTINUOUS
10
154.748
20
-60.4108
11
154.751
21
-60.444
0
LINE
8
BLACK
6
CONTINUOUS
10
154.751
20
-60.444
11
154.751
21
-68.2277
0
LINE
8
BLACK
6
CONTINUOUS
10
154.751
20
-68.2277
11
154.89
21
-68.9272
0
LINE
8
BLACK
6
CONTINUOUS
10
154.89
20
-68.9272
11
155.274
21
-69.5013
0
LINE
8
BLACK
6
CONTINUOUS
10
155.274
20
-69.5013
11
155.848
21
-69.8849
0
LINE
8
BLACK
6
CONTINUOUS
10
155.848
20
-69.8849
11
156.58
21
-70.0306
0
LINE
8
BLACK
6
CONTINUOUS
10
156.58
20
-70.0306
11
156.612
21
-70.0403
0
LINE
8
BLACK
6
CONTINUOUS
10
156.612
20
-70.0403
11
156.651
21
-70.0612
0
LINE
8
BLACK
6
CONTINUOUS
10
156.651
20
-70.0612
11
156.686
21
-70.0895
0
LINE
8
BLACK
6
CONTINUOUS
10
156.686
20
-70.0895
11
156.714
21
-70.1239
0
LINE
8
BLACK
6
CONTINUOUS
10
156.714
20
-70.1239
11
156.735
21
-70.1631
0
LINE
8
BLACK
6
CONTINUOUS
10
156.735
20
-70.1631
11
156.748
21
-70.2057
0
LINE
8
BLACK
6
CONTINUOUS
10
156.748
20
-70.2057
11
156.752
21
-70.25
0
LINE
8
BLACK
6
CONTINUOUS
10
156.752
20
-70.25
11
156.748
21
-70.2943
0
LINE
8
BLACK
6
CONTINUOUS
10
156.748
20
-70.2943
11
156.735
21
-70.3369
0
LINE
8
BLACK
6
CONTINUOUS
10
156.735
20
-70.3369
11
156.714
21
-70.3761
0
LINE
8
BLACK
6
CONTINUOUS
10
156.714
20
-70.3761
11
156.686
21
-70.4105
0
LINE
8
BLACK
6
CONTINUOUS
10
156.686
20
-70.4105
11
156.651
21
-70.4387
0
LINE
8
BLACK
6
CONTINUOUS
10
156.651
20
-70.4387
11
156.612
21
-70.4597
0
LINE
8
BLACK
6
CONTINUOUS
10
156.612
20
-70.4597
11
156.569
21
-70.4726
0
LINE
8
BLACK
6
CONTINUOUS
10
156.569
20
-70.4726
11
156.525
21
-70.477
0
LINE
8
BLACK
6
CONTINUOUS
10
156.525
20
-70.477
11
156.492
21
-70.4737
0
LINE
8
BLACK
6
CONTINUOUS
10
156.492
20
-70.4737
11
155.726
21
-70.3215
0
LINE
8
BLACK
6
CONTINUOUS
10
155.726
20
-70.3215
11
155.715
21
-70.3204
0
LINE
8
BLACK
6
CONTINUOUS
10
155.715
20
-70.3204
11
155.673
21
-70.3075
0
LINE
8
BLACK
6
CONTINUOUS
10
155.673
20
-70.3075
11
155.643
21
-70.2918
0
LINE
8
BLACK
6
CONTINUOUS
10
155.643
20
-70.2918
11
155.643
21
-70.2917
0
LINE
8
BLACK
6
CONTINUOUS
10
155.643
20
-70.2917
11
155.634
21
-70.2865
0
LINE
8
BLACK
6
CONTINUOUS
10
155.634
20
-70.2865
11
155.625
21
-70.2794
0
LINE
8
BLACK
6
CONTINUOUS
10
155.625
20
-70.2794
11
154.995
21
-69.8582
0
LINE
8
BLACK
6
CONTINUOUS
10
154.995
20
-69.8582
11
154.985
21
-69.8529
0
LINE
8
BLACK
6
CONTINUOUS
10
154.985
20
-69.8529
11
154.95
21
-69.8247
0
LINE
8
BLACK
6
CONTINUOUS
10
154.95
20
-69.8247
11
154.929
21
-69.7989
0
LINE
8
BLACK
6
CONTINUOUS
10
154.929
20
-69.7989
11
154.929
21
-69.7989
0
LINE
8
BLACK
6
CONTINUOUS
10
154.929
20
-69.7989
11
154.922
21
-69.7903
0
LINE
8
BLACK
6
CONTINUOUS
10
154.922
20
-69.7903
11
154.917
21
-69.7805
0
LINE
8
BLACK
6
CONTINUOUS
10
154.917
20
-69.7805
11
154.496
21
-69.1501
0
LINE
8
BLACK
6
CONTINUOUS
10
154.496
20
-69.1501
11
154.488
21
-69.1415
0
LINE
8
BLACK
6
CONTINUOUS
10
154.488
20
-69.1415
11
154.479
21
-69.1241
0
LINE
8
BLACK
6
CONTINUOUS
10
154.479
20
-69.1241
11
154.468
21
-69.1022
0
LINE
8
BLACK
6
CONTINUOUS
10
154.468
20
-69.1022
11
154.455
21
-69.0596
0
LINE
8
BLACK
6
CONTINUOUS
10
154.455
20
-69.0596
11
154.454
21
-69.0486
0
LINE
8
BLACK
6
CONTINUOUS
10
154.454
20
-69.0486
11
154.306
21
-68.3049
0
LINE
8
BLACK
6
CONTINUOUS
10
154.306
20
-68.3049
11
154.302
21
-68.2943
0
LINE
8
BLACK
6
CONTINUOUS
10
154.302
20
-68.2943
11
154.299
21
-68.2611
0
LINE
8
BLACK
6
CONTINUOUS
10
154.299
20
-68.2611
11
154.299
21
-68.2611
0
LINE
8
BLACK
6
CONTINUOUS
10
154.299
20
-68.2611
11
154.298
21
-68.25
0
LINE
8
BLACK
6
CONTINUOUS
10
154.298
20
-68.25
11
154.299
21
-68.2389
0
LINE
8
BLACK
6
CONTINUOUS
10
154.299
20
-68.2389
11
154.299
21
-60.444
0
LINE
8
BLACK
6
CONTINUOUS
10
154.299
20
-60.444
11
154.302
21
-60.4108
0
LINE
8
BLACK
6
CONTINUOUS
10
154.302
20
-60.4108
11
154.315
21
-60.3682
0
LINE
8
BLACK
6
CONTINUOUS
10
154.315
20
-60.3682
11
154.336
21
-60.329
0
LINE
8
BLACK
6
CONTINUOUS
10
154.336
20
-60.329
11
154.364
21
-60.2946
0
LINE
8
BLACK
6
CONTINUOUS
10
154.364
20
-60.2946
11
154.399
21
-60.2664
0
LINE
8
BLACK
6
CONTINUOUS
10
154.399
20
-60.2664
11
154.438
21
-60.2454
0
LINE
8
BLACK
6
CONTINUOUS
10
154.438
20
-60.2454
11
154.481
21
-60.2325
0
LINE
8
BLACK
6
CONTINUOUS
10
154.481
20
-60.2325
11
154.525
21
-60.2281
0
LINE
8
BLACK
6
CONTINUOUS
10
154.525
20
-60.2281
11
154.569
21
-60.2325
0
LINE
8
BLACK
6
CONTINUOUS
10
172.319
20
-70.0273
11
172.362
21
-70.0403
0
LINE
8
BLACK
6
CONTINUOUS
10
172.362
20
-70.0403
11
172.401
21
-70.0612
0
LINE
8
BLACK
6
CONTINUOUS
10
172.401
20
-70.0612
11
172.436
21
-70.0895
0
LINE
8
BLACK
6
CONTINUOUS
10
172.436
20
-70.0895
11
172.464
21
-70.1239
0
LINE
8
BLACK
6
CONTINUOUS
10
172.464
20
-70.1239
11
172.485
21
-70.1631
0
LINE
8
BLACK
6
CONTINUOUS
10
172.485
20
-70.1631
11
172.498
21
-70.2057
0
LINE
8
BLACK
6
CONTINUOUS
10
172.498
20
-70.2057
11
172.502
21
-70.25
0
LINE
8
BLACK
6
CONTINUOUS
10
172.502
20
-70.25
11
172.498
21
-70.2943
0
LINE
8
BLACK
6
CONTINUOUS
10
172.498
20
-70.2943
11
172.485
21
-70.3369
0
LINE
8
BLACK
6
CONTINUOUS
10
172.485
20
-70.3369
11
172.464
21
-70.3761
0
LINE
8
BLACK
6
CONTINUOUS
10
172.464
20
-70.3761
11
172.436
21
-70.4105
0
LINE
8
BLACK
6
CONTINUOUS
10
172.436
20
-70.4105
11
172.401
21
-70.4387
0
LINE
8
BLACK
6
CONTINUOUS
10
172.401
20
-70.4387
11
172.362
21
-70.4597
0
LINE
8
BLACK
6
CONTINUOUS
10
172.362
20
-70.4597
11
172.319
21
-70.4726
0
LINE
8
BLACK
6
CONTINUOUS
10
172.319
20
-70.4726
11
172.286
21
-70.4759
0
LINE
8
BLACK
6
CONTINUOUS
10
172.286
20
-70.4759
11
166.734
21
-70.4759
0
LINE
8
BLACK
6
CONTINUOUS
10
166.734
20
-70.4759
11
166.701
21
-70.4726
0
LINE
8
BLACK
6
CONTINUOUS
10
166.701
20
-70.4726
11
166.658
21
-70.4597
0
LINE
8
BLACK
6
CONTINUOUS
10
166.658
20
-70.4597
11
166.619
21
-70.4387
0
LINE
8
BLACK
6
CONTINUOUS
10
166.619
20
-70.4387
11
166.584
21
-70.4105
0
LINE
8
BLACK
6
CONTINUOUS
10
166.584
20
-70.4105
11
166.556
21
-70.3761
0
LINE
8
BLACK
6
CONTINUOUS
10
166.556
20
-70.3761
11
166.535
21
-70.3369
0
LINE
8
BLACK
6
CONTINUOUS
10
166.535
20
-70.3369
11
166.522
21
-70.2943
0
LINE
8
BLACK
6
CONTINUOUS
10
166.522
20
-70.2943
11
166.518
21
-70.25
0
LINE
8
BLACK
6
CONTINUOUS
10
166.518
20
-70.25
11
166.522
21
-70.2057
0
LINE
8
BLACK
6
CONTINUOUS
10
166.522
20
-70.2057
11
166.535
21
-70.1631
0
LINE
8
BLACK
6
CONTINUOUS
10
166.535
20
-70.1631
11
166.556
21
-70.1239
0
LINE
8
BLACK
6
CONTINUOUS
10
166.556
20
-70.1239
11
166.584
21
-70.0895
0
LINE
8
BLACK
6
CONTINUOUS
10
166.584
20
-70.0895
11
166.619
21
-70.0612
0
LINE
8
BLACK
6
CONTINUOUS
10
166.619
20
-70.0612
11
166.658
21
-70.0403
0
LINE
8
BLACK
6
CONTINUOUS
10
166.658
20
-70.0403
11
166.701
21
-70.0273
0
LINE
8
BLACK
6
CONTINUOUS
10
166.701
20
-70.0273
11
166.734
21
-70.0241
0
LINE
8
BLACK
6
CONTINUOUS
10
166.734
20
-70.0241
11
172.286
21
-70.0241
0
LINE
8
BLACK
6
CONTINUOUS
10
172.286
20
-70.0241
11
172.319
21
-70.0273
0
LINE
8
BLACK
6
CONTINUOUS
10
187.419
20
-58.7824
11
187.462
21
-58.7953
0
LINE
8
BLACK
6
CONTINUOUS
10
187.462
20
-58.7953
11
187.501
21
-58.8163
0
LINE
8
BLACK
6
CONTINUOUS
10
187.501
20
-58.8163
11
187.536
21
-58.8445
0
LINE
8
BLACK
6
CONTINUOUS
10
187.536
20
-58.8445
11
187.564
21
-58.8789
0
LINE
8
BLACK
6
CONTINUOUS
10
187.564
20
-58.8789
11
187.585
21
-58.9181
0
LINE
8
BLACK
6
CONTINUOUS
10
187.585
20
-58.9181
11
187.598
21
-58.9607
0
LINE
8
BLACK
6
CONTINUOUS
10
187.598
20
-58.9607
11
187.601
21
-58.9939
0
LINE
8
BLACK
6
CONTINUOUS
10
187.601
20
-58.9939
11
187.601
21
-68.2644
0
LINE
8
BLACK
6
CONTINUOUS
10
187.601
20
-68.2644
11
187.598
21
-68.2976
0
LINE
8
BLACK
6
CONTINUOUS
10
187.598
20
-68.2976
11
187.585
21
-68.3402
0
LINE
8
BLACK
6
CONTINUOUS
10
187.585
20
-68.3402
11
187.564
21
-68.3794
0
LINE
8
BLACK
6
CONTINUOUS
10
187.564
20
-68.3794
11
187.536
21
-68.4138
0
LINE
8
BLACK
6
CONTINUOUS
10
187.536
20
-68.4138
11
187.501
21
-68.4421
0
LINE
8
BLACK
6
CONTINUOUS
10
187.501
20
-68.4421
11
187.462
21
-68.463
0
LINE
8
BLACK
6
CONTINUOUS
10
187.462
20
-68.463
11
187.419
21
-68.476
0
LINE
8
BLACK
6
CONTINUOUS
10
187.419
20
-68.476
11
187.375
21
-68.4803
0
LINE
8
BLACK
6
CONTINUOUS
10
187.375
20
-68.4803
11
187.331
21
-68.476
0
LINE
8
BLACK
6
CONTINUOUS
10
187.331
20
-68.476
11
187.288
21
-68.463
0
LINE
8
BLACK
6
CONTINUOUS
10
187.288
20
-68.463
11
187.249
21
-68.4421
0
LINE
8
BLACK
6
CONTINUOUS
10
187.249
20
-68.4421
11
187.214
21
-68.4138
0
LINE
8
BLACK
6
CONTINUOUS
10
187.214
20
-68.4138
11
187.186
21
-68.3794
0
LINE
8
BLACK
6
CONTINUOUS
10
187.186
20
-68.3794
11
187.165
21
-68.3402
0
LINE
8
BLACK
6
CONTINUOUS
10
187.165
20
-68.3402
11
187.152
21
-68.2976
0
LINE
8
BLACK
6
CONTINUOUS
10
187.152
20
-68.2976
11
187.149
21
-68.2644
0
LINE
8
BLACK
6
CONTINUOUS
10
187.149
20
-68.2644
11
187.149
21
-58.9939
0
LINE
8
BLACK
6
CONTINUOUS
10
187.149
20
-58.9939
11
187.152
21
-58.9607
0
LINE
8
BLACK
6
CONTINUOUS
10
187.152
20
-58.9607
11
187.165
21
-58.9181
0
LINE
8
BLACK
6
CONTINUOUS
10
187.165
20
-58.9181
11
187.186
21
-58.8789
0
LINE
8
BLACK
6
CONTINUOUS
10
187.186
20
-58.8789
11
187.214
21
-58.8445
0
LINE
8
BLACK
6
CONTINUOUS
10
187.214
20
-58.8445
11
187.249
21
-58.8163
0
LINE
8
BLACK
6
CONTINUOUS
10
187.249
20
-58.8163
11
187.288
21
-58.7953
0
LINE
8
BLACK
6
CONTINUOUS
10
187.288
20
-58.7953
11
187.331
21
-58.7824
0
LINE
8
BLACK
6
CONTINUOUS
10
187.331
20
-58.7824
11
187.375
21
-58.778
0
LINE
8
BLACK
6
CONTINUOUS
10
187.375
20
-58.778
11
187.419
21
-58.7824
0
LINE
8
BLACK
6
CONTINUOUS
10
145.482
20
-58.0135
11
145.938
21
-58.2026
0
LINE
8
BLACK
6
CONTINUOUS
10
145.938
20
-58.2026
11
146.349
21
-58.477
0
LINE
8
BLACK
6
CONTINUOUS
10
146.349
20
-58.477
11
146.698
21
-58.8263
0
LINE
8
BLACK
6
CONTINUOUS
10
146.698
20
-58.8263
11
146.972
21
-59.2371
0
LINE
8
BLACK
6
CONTINUOUS
10
146.972
20
-59.2371
11
147.161
21
-59.6935
0
LINE
8
BLACK
6
CONTINUOUS
10
147.161
20
-59.6935
11
147.258
21
-60.178
0
LINE
8
BLACK
6
CONTINUOUS
10
147.258
20
-60.178
11
147.258
21
-60.672
0
LINE
8
BLACK
6
CONTINUOUS
10
147.258
20
-60.672
11
147.161
21
-61.1565
0
LINE
8
BLACK
6
CONTINUOUS
10
147.161
20
-61.1565
11
146.972
21
-61.6129
0
LINE
8
BLACK
6
CONTINUOUS
10
146.972
20
-61.6129
11
146.698
21
-62.0237
0
LINE
8
BLACK
6
CONTINUOUS
10
146.698
20
-62.0237
11
146.349
21
-62.373
0
LINE
8
BLACK
6
CONTINUOUS
10
146.349
20
-62.373
11
145.938
21
-62.6474
0
LINE
8
BLACK
6
CONTINUOUS
10
145.938
20
-62.6474
11
145.482
21
-62.8365
0
LINE
8
BLACK
6
CONTINUOUS
10
145.482
20
-62.8365
11
144.997
21
-62.9329
0
LINE
8
BLACK
6
CONTINUOUS
10
144.997
20
-62.9329
11
144.503
21
-62.9329
0
LINE
8
BLACK
6
CONTINUOUS
10
144.503
20
-62.9329
11
144.018
21
-62.8365
0
LINE
8
BLACK
6
CONTINUOUS
10
144.018
20
-62.8365
11
143.562
21
-62.6474
0
LINE
8
BLACK
6
CONTINUOUS
10
143.562
20
-62.6474
11
143.151
21
-62.373
0
LINE
8
BLACK
6
CONTINUOUS
10
143.151
20
-62.373
11
142.802
21
-62.0237
0
LINE
8
BLACK
6
CONTINUOUS
10
142.802
20
-62.0237
11
142.528
21
-61.6129
0
LINE
8
BLACK
6
CONTINUOUS
10
142.528
20
-61.6129
11
142.339
21
-61.1565
0
LINE
8
BLACK
6
CONTINUOUS
10
142.339
20
-61.1565
11
142.242
21
-60.672
0
LINE
8
BLACK
6
CONTINUOUS
10
142.242
20
-60.672
11
142.242
21
-60.178
0
LINE
8
BLACK
6
CONTINUOUS
10
142.242
20
-60.178
11
142.339
21
-59.6935
0
LINE
8
BLACK
6
CONTINUOUS
10
142.339
20
-59.6935
11
142.528
21
-59.2371
0
LINE
8
BLACK
6
CONTINUOUS
10
142.528
20
-59.2371
11
142.802
21
-58.8263
0
LINE
8
BLACK
6
CONTINUOUS
10
142.802
20
-58.8263
11
143.151
21
-58.477
0
LINE
8
BLACK
6
CONTINUOUS
10
143.151
20
-58.477
11
143.562
21
-58.2026
0
LINE
8
BLACK
6
CONTINUOUS
10
143.562
20
-58.2026
11
144.018
21
-58.0135
0
LINE
8
BLACK
6
CONTINUOUS
10
144.018
20
-58.0135
11
144.503
21
-57.9171
0
LINE
8
BLACK
6
CONTINUOUS
10
144.503
20
-57.9171
11
144.997
21
-57.9171
0
LINE
8
BLACK
6
CONTINUOUS
10
144.997
20
-57.9171
11
145.482
21
-58.0135
0
LINE
8
BLACK
6
CONTINUOUS
10
144.425
20
-54.248
11
144.436
21
-54.2491
0
LINE
8
BLACK
6
CONTINUOUS
10
144.436
20
-54.2491
11
144.436
21
-54.2491
0
LINE
8
BLACK
6
CONTINUOUS
10
144.436
20
-54.2491
11
144.469
21
-54.2524
0
LINE
8
BLACK
6
CONTINUOUS
10
144.469
20
-54.2524
11
144.48
21
-54.2556
0
LINE
8
BLACK
6
CONTINUOUS
10
144.48
20
-54.2556
11
145.224
21
-54.4035
0
LINE
8
BLACK
6
CONTINUOUS
10
145.224
20
-54.4035
11
145.235
21
-54.4046
0
LINE
8
BLACK
6
CONTINUOUS
10
145.235
20
-54.4046
11
145.245
21
-54.4078
0
LINE
8
BLACK
6
CONTINUOUS
10
145.245
20
-54.4078
11
145.245
21
-54.4078
0
LINE
8
BLACK
6
CONTINUOUS
10
145.245
20
-54.4078
11
145.277
21
-54.4175
0
LINE
8
BLACK
6
CONTINUOUS
10
145.277
20
-54.4175
11
145.288
21
-54.4232
0
LINE
8
BLACK
6
CONTINUOUS
10
145.288
20
-54.4232
11
145.307
21
-54.4332
0
LINE
8
BLACK
6
CONTINUOUS
10
145.307
20
-54.4332
11
145.307
21
-54.4332
0
LINE
8
BLACK
6
CONTINUOUS
10
145.307
20
-54.4332
11
145.316
21
-54.4385
0
LINE
8
BLACK
6
CONTINUOUS
10
145.316
20
-54.4385
11
145.325
21
-54.4456
0
LINE
8
BLACK
6
CONTINUOUS
10
145.325
20
-54.4456
11
145.955
21
-54.8666
0
LINE
8
BLACK
6
CONTINUOUS
10
145.955
20
-54.8666
11
145.965
21
-54.8716
0
LINE
8
BLACK
6
CONTINUOUS
10
145.965
20
-54.8716
11
145.974
21
-54.8789
0
LINE
8
BLACK
6
CONTINUOUS
10
145.974
20
-54.8789
11
145.974
21
-54.8791
0
LINE
8
BLACK
6
CONTINUOUS
10
145.974
20
-54.8791
11
145.982
21
-54.886
0
LINE
8
BLACK
6
CONTINUOUS
10
145.982
20
-54.886
11
145.991
21
-54.8927
0
LINE
8
BLACK
6
CONTINUOUS
10
145.991
20
-54.8927
11
145.991
21
-54.893
0
LINE
8
BLACK
6
CONTINUOUS
10
145.991
20
-54.893
11
146
21
-54.9003
0
LINE
8
BLACK
6
CONTINUOUS
10
146
20
-54.9003
11
146.007
21
-54.9086
0
LINE
8
BLACK
6
CONTINUOUS
10
146.007
20
-54.9086
11
148.845
21
-57.7291
0
LINE
8
BLACK
6
CONTINUOUS
10
148.845
20
-57.7291
11
148.866
21
-57.7548
0
LINE
8
BLACK
6
CONTINUOUS
10
148.866
20
-57.7548
11
148.887
21
-57.794
0
LINE
8
BLACK
6
CONTINUOUS
10
148.887
20
-57.794
11
148.9
21
-57.8365
0
LINE
8
BLACK
6
CONTINUOUS
10
148.9
20
-57.8365
11
148.905
21
-57.8808
0
LINE
8
BLACK
6
CONTINUOUS
10
148.905
20
-57.8808
11
148.9
21
-57.9251
0
LINE
8
BLACK
6
CONTINUOUS
10
148.9
20
-57.9251
11
148.888
21
-57.9677
0
LINE
8
BLACK
6
CONTINUOUS
10
148.888
20
-57.9677
11
148.867
21
-58.007
0
LINE
8
BLACK
6
CONTINUOUS
10
148.867
20
-58.007
11
148.839
21
-58.0415
0
LINE
8
BLACK
6
CONTINUOUS
10
148.839
20
-58.0415
11
148.804
21
-58.0698
0
LINE
8
BLACK
6
CONTINUOUS
10
148.804
20
-58.0698
11
148.765
21
-58.0909
0
LINE
8
BLACK
6
CONTINUOUS
10
148.765
20
-58.0909
11
148.723
21
-58.104
0
LINE
8
BLACK
6
CONTINUOUS
10
148.723
20
-58.104
11
148.678
21
-58.1085
0
LINE
8
BLACK
6
CONTINUOUS
10
148.678
20
-58.1085
11
148.634
21
-58.1043
0
LINE
8
BLACK
6
CONTINUOUS
10
148.634
20
-58.1043
11
148.591
21
-58.0915
0
LINE
8
BLACK
6
CONTINUOUS
10
148.591
20
-58.0915
11
148.552
21
-58.0706
0
LINE
8
BLACK
6
CONTINUOUS
10
148.552
20
-58.0706
11
148.526
21
-58.0495
0
LINE
8
BLACK
6
CONTINUOUS
10
148.526
20
-58.0495
11
145.696
21
-55.2365
0
LINE
8
BLACK
6
CONTINUOUS
10
145.696
20
-55.2365
11
145.102
21
-54.84
0
LINE
8
BLACK
6
CONTINUOUS
10
145.102
20
-54.84
11
144.403
21
-54.7009
0
LINE
8
BLACK
6
CONTINUOUS
10
144.403
20
-54.7009
11
141.925
21
-54.7009
0
LINE
8
BLACK
6
CONTINUOUS
10
141.925
20
-54.7009
11
141.925
21
-54.71
0
LINE
8
BLACK
6
CONTINUOUS
10
141.925
20
-54.71
11
137.127
21
-54.71
0
LINE
8
BLACK
6
CONTINUOUS
10
137.127
20
-54.71
11
137.127
21
-54.24
0
LINE
8
BLACK
6
CONTINUOUS
10
137.127
20
-54.24
11
141.925
21
-54.24
0
LINE
8
BLACK
6
CONTINUOUS
10
141.925
20
-54.24
11
141.925
21
-54.2491
0
LINE
8
BLACK
6
CONTINUOUS
10
141.925
20
-54.2491
11
144.414
21
-54.2491
0
LINE
8
BLACK
6
CONTINUOUS
10
144.414
20
-54.2491
11
144.425
21
-54.248
0
LINE
8
BLACK
6
CONTINUOUS
10
141.925
20
-57.675
11
137.025
21
-57.675
0
LINE
8
BLACK
6
CONTINUOUS
10
137.025
20
-57.675
11
137.025
21
-54.91
0
LINE
8
BLACK
6
CONTINUOUS
10
137.025
20
-54.91
11
141.925
21
-54.91
0
LINE
8
BLACK
6
CONTINUOUS
10
141.925
20
-54.91
11
141.925
21
-57.675
0
LINE
8
BLACK
6
CONTINUOUS
10
237.973
20
-57.0178
11
237.971
21
-57.025
0
LINE
8
BLACK
6
CONTINUOUS
10
237.971
20
-57.025
11
237.987
21
-57.103
0
LINE
8
BLACK
6
CONTINUOUS
10
237.987
20
-57.103
11
238.031
21
-57.1692
0
LINE
8
BLACK
6
CONTINUOUS
10
238.031
20
-57.1692
11
238.06
21
-57.1889
0
LINE
8
BLACK
6
CONTINUOUS
10
238.06
20
-57.1889
11
238.076
21
-57.3254
0
LINE
8
BLACK
6
CONTINUOUS
10
238.076
20
-57.3254
11
238.017
21
-57.3955
0
LINE
8
BLACK
6
CONTINUOUS
10
238.017
20
-57.3955
11
237.597
21
-57.4512
0
LINE
8
BLACK
6
CONTINUOUS
10
237.597
20
-57.4512
11
237.589
21
-57.4528
0
LINE
8
BLACK
6
CONTINUOUS
10
237.589
20
-57.4528
11
237.581
21
-57.4534
0
LINE
8
BLACK
6
CONTINUOUS
10
237.581
20
-57.4534
11
237.569
21
-57.455
0
LINE
8
BLACK
6
CONTINUOUS
10
237.569
20
-57.455
11
237.561
21
-57.455
0
LINE
8
BLACK
6
CONTINUOUS
10
237.561
20
-57.455
11
237.519
21
-57.4725
0
LINE
8
BLACK
6
CONTINUOUS
10
237.519
20
-57.4725
11
237.467
21
-57.4828
0
LINE
8
BLACK
6
CONTINUOUS
10
237.467
20
-57.4828
11
237.414
21
-57.4828
0
LINE
8
BLACK
6
CONTINUOUS
10
237.414
20
-57.4828
11
237.362
21
-57.4725
0
LINE
8
BLACK
6
CONTINUOUS
10
237.362
20
-57.4725
11
237.348
21
-57.4665
0
LINE
8
BLACK
6
CONTINUOUS
10
237.348
20
-57.4665
11
236.833
21
-57.4665
0
LINE
8
BLACK
6
CONTINUOUS
10
236.833
20
-57.4665
11
236.819
21
-57.4725
0
LINE
8
BLACK
6
CONTINUOUS
10
236.819
20
-57.4725
11
236.767
21
-57.4828
0
LINE
8
BLACK
6
CONTINUOUS
10
236.767
20
-57.4828
11
236.714
21
-57.4828
0
LINE
8
BLACK
6
CONTINUOUS
10
236.714
20
-57.4828
11
236.662
21
-57.4725
0
LINE
8
BLACK
6
CONTINUOUS
10
236.662
20
-57.4725
11
236.648
21
-57.4665
0
LINE
8
BLACK
6
CONTINUOUS
10
236.648
20
-57.4665
11
236.133
21
-57.4665
0
LINE
8
BLACK
6
CONTINUOUS
10
236.133
20
-57.4665
11
236.119
21
-57.4725
0
LINE
8
BLACK
6
CONTINUOUS
10
236.119
20
-57.4725
11
236.067
21
-57.4828
0
LINE
8
BLACK
6
CONTINUOUS
10
236.067
20
-57.4828
11
236.014
21
-57.4828
0
LINE
8
BLACK
6
CONTINUOUS
10
236.014
20
-57.4828
11
235.962
21
-57.4725
0
LINE
8
BLACK
6
CONTINUOUS
10
235.962
20
-57.4725
11
235.948
21
-57.4665
0
LINE
8
BLACK
6
CONTINUOUS
10
235.948
20
-57.4665
11
235.433
21
-57.4665
0
LINE
8
BLACK
6
CONTINUOUS
10
235.433
20
-57.4665
11
235.419
21
-57.4725
0
LINE
8
BLACK
6
CONTINUOUS
10
235.419
20
-57.4725
11
235.367
21
-57.4828
0
LINE
8
BLACK
6
CONTINUOUS
10
235.367
20
-57.4828
11
235.314
21
-57.4828
0
LINE
8
BLACK
6
CONTINUOUS
10
235.314
20
-57.4828
11
235.262
21
-57.4725
0
LINE
8
BLACK
6
CONTINUOUS
10
235.262
20
-57.4725
11
235.248
21
-57.4665
0
LINE
8
BLACK
6
CONTINUOUS
10
235.248
20
-57.4665
11
234.769
21
-57.4665
0
LINE
8
BLACK
6
CONTINUOUS
10
234.769
20
-57.4665
11
234.728
21
-57.4834
0
LINE
8
BLACK
6
CONTINUOUS
10
234.728
20
-57.4834
11
234.676
21
-57.4937
0
LINE
8
BLACK
6
CONTINUOUS
10
234.676
20
-57.4937
11
234.624
21
-57.4937
0
LINE
8
BLACK
6
CONTINUOUS
10
234.624
20
-57.4937
11
234.572
21
-57.4834
0
LINE
8
BLACK
6
CONTINUOUS
10
234.572
20
-57.4834
11
234.523
21
-57.4631
0
LINE
8
BLACK
6
CONTINUOUS
10
234.523
20
-57.4631
11
234.516
21
-57.4588
0
LINE
8
BLACK
6
CONTINUOUS
10
234.516
20
-57.4588
11
234.508
21
-57.4577
0
LINE
8
BLACK
6
CONTINUOUS
10
234.508
20
-57.4577
11
234.508
21
-57.4535
0
LINE
8
BLACK
6
CONTINUOUS
10
234.508
20
-57.4535
11
234.479
21
-57.4337
0
LINE
8
BLACK
6
CONTINUOUS
10
234.479
20
-57.4337
11
234.441
21
-57.3963
0
LINE
8
BLACK
6
CONTINUOUS
10
234.441
20
-57.3963
11
234.412
21
-57.3523
0
LINE
8
BLACK
6
CONTINUOUS
10
234.412
20
-57.3523
11
234.392
21
-57.3034
0
LINE
8
BLACK
6
CONTINUOUS
10
234.392
20
-57.3034
11
234.381
21
-57.2515
0
LINE
8
BLACK
6
CONTINUOUS
10
234.381
20
-57.2515
11
234.381
21
-57.1985
0
LINE
8
BLACK
6
CONTINUOUS
10
234.381
20
-57.1985
11
234.392
21
-57.1466
0
LINE
8
BLACK
6
CONTINUOUS
10
234.392
20
-57.1466
11
234.412
21
-57.0977
0
LINE
8
BLACK
6
CONTINUOUS
10
234.412
20
-57.0977
11
234.441
21
-57.0537
0
LINE
8
BLACK
6
CONTINUOUS
10
234.441
20
-57.0537
11
234.479
21
-57.0163
0
LINE
8
BLACK
6
CONTINUOUS
10
234.479
20
-57.0163
11
234.523
21
-56.9869
0
LINE
8
BLACK
6
CONTINUOUS
10
234.523
20
-56.9869
11
234.572
21
-56.9666
0
LINE
8
BLACK
6
CONTINUOUS
10
234.572
20
-56.9666
11
234.608
21
-56.9594
0
LINE
8
BLACK
6
CONTINUOUS
10
234.608
20
-56.9594
11
234.608
21
-56.9592
0
LINE
8
BLACK
6
CONTINUOUS
10
234.608
20
-56.9592
11
234.609
21
-56.9592
0
LINE
8
BLACK
6
CONTINUOUS
10
234.609
20
-56.9592
11
234.624
21
-56.9563
0
LINE
8
BLACK
6
CONTINUOUS
10
234.624
20
-56.9563
11
234.676
21
-56.9563
0
LINE
8
BLACK
6
CONTINUOUS
10
234.676
20
-56.9563
11
234.691
21
-56.9592
0
LINE
8
BLACK
6
CONTINUOUS
10
234.691
20
-56.9592
11
235.254
21
-56.9592
0
LINE
8
BLACK
6
CONTINUOUS
10
235.254
20
-56.9592
11
235.262
21
-56.9558
0
LINE
8
BLACK
6
CONTINUOUS
10
235.262
20
-56.9558
11
235.314
21
-56.9454
0
LINE
8
BLACK
6
CONTINUOUS
10
235.314
20
-56.9454
11
235.367
21
-56.9454
0
LINE
8
BLACK
6
CONTINUOUS
10
235.367
20
-56.9454
11
235.419
21
-56.9558
0
LINE
8
BLACK
6
CONTINUOUS
10
235.419
20
-56.9558
11
235.427
21
-56.9592
0
LINE
8
BLACK
6
CONTINUOUS
10
235.427
20
-56.9592
11
235.954
21
-56.9592
0
LINE
8
BLACK
6
CONTINUOUS
10
235.954
20
-56.9592
11
235.962
21
-56.9558
0
LINE
8
BLACK
6
CONTINUOUS
10
235.962
20
-56.9558
11
236.014
21
-56.9454
0
LINE
8
BLACK
6
CONTINUOUS
10
236.014
20
-56.9454
11
236.067
21
-56.9454
0
LINE
8
BLACK
6
CONTINUOUS
10
236.067
20
-56.9454
11
236.119
21
-56.9558
0
LINE
8
BLACK
6
CONTINUOUS
10
236.119
20
-56.9558
11
236.127
21
-56.9592
0
LINE
8
BLACK
6
CONTINUOUS
10
236.127
20
-56.9592
11
236.654
21
-56.9592
0
LINE
8
BLACK
6
CONTINUOUS
10
236.654
20
-56.9592
11
236.662
21
-56.9558
0
LINE
8
BLACK
6
CONTINUOUS
10
236.662
20
-56.9558
11
236.714
21
-56.9454
0
LINE
8
BLACK
6
CONTINUOUS
10
236.714
20
-56.9454
11
236.767
21
-56.9454
0
LINE
8
BLACK
6
CONTINUOUS
10
236.767
20
-56.9454
11
236.819
21
-56.9558
0
LINE
8
BLACK
6
CONTINUOUS
10
236.819
20
-56.9558
11
236.827
21
-56.9592
0
LINE
8
BLACK
6
CONTINUOUS
10
236.827
20
-56.9592
11
237.354
21
-56.9592
0
LINE
8
BLACK
6
CONTINUOUS
10
237.354
20
-56.9592
11
237.362
21
-56.9558
0
LINE
8
BLACK
6
CONTINUOUS
10
237.362
20
-56.9558
11
237.414
21
-56.9454
0
LINE
8
BLACK
6
CONTINUOUS
10
237.414
20
-56.9454
11
237.467
21
-56.9454
0
LINE
8
BLACK
6
CONTINUOUS
10
237.467
20
-56.9454
11
237.5
21
-56.9521
0
LINE
8
BLACK
6
CONTINUOUS
10
237.5
20
-56.9521
11
237.502
21
-56.9522
0
LINE
8
BLACK
6
CONTINUOUS
10
237.502
20
-56.9522
11
237.875
21
-56.9026
0
LINE
8
BLACK
6
CONTINUOUS
10
237.875
20
-56.9026
11
237.973
21
-57.0178
0
LINE
8
BLACK
6
CONTINUOUS
10
223.725
20
-56.785
11
223.165
21
-56.785
0
LINE
8
BLACK
6
CONTINUOUS
10
223.165
20
-56.785
11
223.165
21
-56.7259
0
LINE
8
BLACK
6
CONTINUOUS
10
223.165
20
-56.7259
11
220.264
21
-56.7259
0
LINE
8
BLACK
6
CONTINUOUS
10
220.264
20
-56.7259
11
220.231
21
-56.7226
0
LINE
8
BLACK
6
CONTINUOUS
10
220.231
20
-56.7226
11
220.188
21
-56.7097
0
LINE
8
BLACK
6
CONTINUOUS
10
220.188
20
-56.7097
11
220.149
21
-56.6887
0
LINE
8
BLACK
6
CONTINUOUS
10
220.149
20
-56.6887
11
220.114
21
-56.6605
0
LINE
8
BLACK
6
CONTINUOUS
10
220.114
20
-56.6605
11
220.086
21
-56.6261
0
LINE
8
BLACK
6
CONTINUOUS
10
220.086
20
-56.6261
11
220.065
21
-56.5869
0
LINE
8
BLACK
6
CONTINUOUS
10
220.065
20
-56.5869
11
220.052
21
-56.5443
0
LINE
8
BLACK
6
CONTINUOUS
10
220.052
20
-56.5443
11
220.048
21
-56.5
0
LINE
8
BLACK
6
CONTINUOUS
10
220.048
20
-56.5
11
220.052
21
-56.4557
0
LINE
8
BLACK
6
CONTINUOUS
10
220.052
20
-56.4557
11
220.065
21
-56.4131
0
LINE
8
BLACK
6
CONTINUOUS
10
220.065
20
-56.4131
11
220.086
21
-56.3739
0
LINE
8
BLACK
6
CONTINUOUS
10
220.086
20
-56.3739
11
220.114
21
-56.3395
0
LINE
8
BLACK
6
CONTINUOUS
10
220.114
20
-56.3395
11
220.149
21
-56.3112
0
LINE
8
BLACK
6
CONTINUOUS
10
220.149
20
-56.3112
11
220.188
21
-56.2903
0
LINE
8
BLACK
6
CONTINUOUS
10
220.188
20
-56.2903
11
220.231
21
-56.2773
0
LINE
8
BLACK
6
CONTINUOUS
10
220.231
20
-56.2773
11
220.264
21
-56.2741
0
LINE
8
BLACK
6
CONTINUOUS
10
220.264
20
-56.2741
11
223.165
21
-56.2741
0
LINE
8
BLACK
6
CONTINUOUS
10
223.165
20
-56.2741
11
223.165
21
-56.265
0
LINE
8
BLACK
6
CONTINUOUS
10
223.165
20
-56.265
11
223.725
21
-56.265
0
LINE
8
BLACK
6
CONTINUOUS
10
223.725
20
-56.265
11
223.725
21
-56.785
0
LINE
8
BLACK
6
CONTINUOUS
10
209.74
20
-56.76
11
209.18
21
-56.76
0
LINE
8
BLACK
6
CONTINUOUS
10
209.18
20
-56.76
11
209.18
21
-56.7259
0
LINE
8
BLACK
6
CONTINUOUS
10
209.18
20
-56.7259
11
203.789
21
-56.7259
0
LINE
8
BLACK
6
CONTINUOUS
10
203.789
20
-56.7259
11
203.756
21
-56.7226
0
LINE
8
BLACK
6
CONTINUOUS
10
203.756
20
-56.7226
11
203.713
21
-56.7097
0
LINE
8
BLACK
6
CONTINUOUS
10
203.713
20
-56.7097
11
203.674
21
-56.6887
0
LINE
8
BLACK
6
CONTINUOUS
10
203.674
20
-56.6887
11
203.639
21
-56.6605
0
LINE
8
BLACK
6
CONTINUOUS
10
203.639
20
-56.6605
11
203.611
21
-56.6261
0
LINE
8
BLACK
6
CONTINUOUS
10
203.611
20
-56.6261
11
203.59
21
-56.5869
0
LINE
8
BLACK
6
CONTINUOUS
10
203.59
20
-56.5869
11
203.577
21
-56.5443
0
LINE
8
BLACK
6
CONTINUOUS
10
203.577
20
-56.5443
11
203.573
21
-56.5
0
LINE
8
BLACK
6
CONTINUOUS
10
203.573
20
-56.5
11
203.577
21
-56.4557
0
LINE
8
BLACK
6
CONTINUOUS
10
203.577
20
-56.4557
11
203.59
21
-56.4131
0
LINE
8
BLACK
6
CONTINUOUS
10
203.59
20
-56.4131
11
203.611
21
-56.3739
0
LINE
8
BLACK
6
CONTINUOUS
10
203.611
20
-56.3739
11
203.639
21
-56.3395
0
LINE
8
BLACK
6
CONTINUOUS
10
203.639
20
-56.3395
11
203.674
21
-56.3112
0
LINE
8
BLACK
6
CONTINUOUS
10
203.674
20
-56.3112
11
203.713
21
-56.2903
0
LINE
8
BLACK
6
CONTINUOUS
10
203.713
20
-56.2903
11
203.756
21
-56.2773
0
LINE
8
BLACK
6
CONTINUOUS
10
203.756
20
-56.2773
11
203.789
21
-56.2741
0
LINE
8
BLACK
6
CONTINUOUS
10
203.789
20
-56.2741
11
209.18
21
-56.2741
0
LINE
8
BLACK
6
CONTINUOUS
10
209.18
20
-56.2741
11
209.18
21
-56.24
0
LINE
8
BLACK
6
CONTINUOUS
10
209.18
20
-56.24
11
209.74
21
-56.24
0
LINE
8
BLACK
6
CONTINUOUS
10
209.74
20
-56.24
11
209.74
21
-56.76
0
LINE
8
BLACK
6
CONTINUOUS
10
237.494
20
-56.3024
11
237.537
21
-56.3153
0
LINE
8
BLACK
6
CONTINUOUS
10
237.537
20
-56.3153
11
237.576
21
-56.3363
0
LINE
8
BLACK
6
CONTINUOUS
10
237.576
20
-56.3363
11
237.611
21
-56.3645
0
LINE
8
BLACK
6
CONTINUOUS
10
237.611
20
-56.3645
11
237.639
21
-56.3989
0
LINE
8
BLACK
6
CONTINUOUS
10
237.639
20
-56.3989
11
237.66
21
-56.4381
0
LINE
8
BLACK
6
CONTINUOUS
10
237.66
20
-56.4381
11
237.673
21
-56.4807
0
LINE
8
BLACK
6
CONTINUOUS
10
237.673
20
-56.4807
11
237.677
21
-56.525
0
LINE
8
BLACK
6
CONTINUOUS
10
237.677
20
-56.525
11
237.673
21
-56.5693
0
LINE
8
BLACK
6
CONTINUOUS
10
237.673
20
-56.5693
11
237.66
21
-56.6119
0
LINE
8
BLACK
6
CONTINUOUS
10
237.66
20
-56.6119
11
237.639
21
-56.6511
0
LINE
8
BLACK
6
CONTINUOUS
10
237.639
20
-56.6511
11
237.611
21
-56.6855
0
LINE
8
BLACK
6
CONTINUOUS
10
237.611
20
-56.6855
11
237.576
21
-56.7137
0
LINE
8
BLACK
6
CONTINUOUS
10
237.576
20
-56.7137
11
237.537
21
-56.7347
0
LINE
8
BLACK
6
CONTINUOUS
10
237.537
20
-56.7347
11
237.494
21
-56.7476
0
LINE
8
BLACK
6
CONTINUOUS
10
237.494
20
-56.7476
11
237.461
21
-56.7509
0
LINE
8
BLACK
6
CONTINUOUS
10
237.461
20
-56.7509
11
234.564
21
-56.7509
0
LINE
8
BLACK
6
CONTINUOUS
10
234.564
20
-56.7509
11
234.531
21
-56.7476
0
LINE
8
BLACK
6
CONTINUOUS
10
234.531
20
-56.7476
11
234.488
21
-56.7347
0
LINE
8
BLACK
6
CONTINUOUS
10
234.488
20
-56.7347
11
234.449
21
-56.7137
0
LINE
8
BLACK
6
CONTINUOUS
10
234.449
20
-56.7137
11
234.414
21
-56.6855
0
LINE
8
BLACK
6
CONTINUOUS
10
234.414
20
-56.6855
11
234.386
21
-56.6511
0
LINE
8
BLACK
6
CONTINUOUS
10
234.386
20
-56.6511
11
234.365
21
-56.6119
0
LINE
8
BLACK
6
CONTINUOUS
10
234.365
20
-56.6119
11
234.352
21
-56.5693
0
LINE
8
BLACK
6
CONTINUOUS
10
234.352
20
-56.5693
11
234.348
21
-56.525
0
LINE
8
BLACK
6
CONTINUOUS
10
234.348
20
-56.525
11
234.352
21
-56.4807
0
LINE
8
BLACK
6
CONTINUOUS
10
234.352
20
-56.4807
11
234.365
21
-56.4381
0
LINE
8
BLACK
6
CONTINUOUS
10
234.365
20
-56.4381
11
234.386
21
-56.3989
0
LINE
8
BLACK
6
CONTINUOUS
10
234.386
20
-56.3989
11
234.414
21
-56.3645
0
LINE
8
BLACK
6
CONTINUOUS
10
234.414
20
-56.3645
11
234.449
21
-56.3363
0
LINE
8
BLACK
6
CONTINUOUS
10
234.449
20
-56.3363
11
234.488
21
-56.3153
0
LINE
8
BLACK
6
CONTINUOUS
10
234.488
20
-56.3153
11
234.531
21
-56.3024
0
LINE
8
BLACK
6
CONTINUOUS
10
234.531
20
-56.3024
11
234.564
21
-56.2991
0
LINE
8
BLACK
6
CONTINUOUS
10
234.564
20
-56.2991
11
237.461
21
-56.2991
0
LINE
8
BLACK
6
CONTINUOUS
10
237.461
20
-56.2991
11
237.494
21
-56.3024
0
LINE
8
BLACK
6
CONTINUOUS
10
194.716
20
-54.7502
11
194.716
21
-54.7502
0
LINE
8
BLACK
6
CONTINUOUS
10
194.716
20
-54.7502
11
194.727
21
-54.7513
0
LINE
8
BLACK
6
CONTINUOUS
10
194.727
20
-54.7513
11
194.738
21
-54.7545
0
LINE
8
BLACK
6
CONTINUOUS
10
194.738
20
-54.7545
11
195.673
21
-54.9405
0
LINE
8
BLACK
6
CONTINUOUS
10
195.673
20
-54.9405
11
195.684
21
-54.9416
0
LINE
8
BLACK
6
CONTINUOUS
10
195.684
20
-54.9416
11
195.719
21
-54.9521
0
LINE
8
BLACK
6
CONTINUOUS
10
195.719
20
-54.9521
11
195.727
21
-54.9545
0
LINE
8
BLACK
6
CONTINUOUS
10
195.727
20
-54.9545
11
195.766
21
-54.9755
0
LINE
8
BLACK
6
CONTINUOUS
10
195.766
20
-54.9755
11
195.774
21
-54.9826
0
LINE
8
BLACK
6
CONTINUOUS
10
195.774
20
-54.9826
11
196.586
21
-55.5245
0
LINE
8
BLACK
6
CONTINUOUS
10
196.586
20
-55.5245
11
196.611
21
-55.5457
0
LINE
8
BLACK
6
CONTINUOUS
10
196.611
20
-55.5457
11
196.64
21
-55.5801
0
LINE
8
BLACK
6
CONTINUOUS
10
196.64
20
-55.5801
11
196.661
21
-55.6193
0
LINE
8
BLACK
6
CONTINUOUS
10
196.661
20
-55.6193
11
196.673
21
-55.6619
0
LINE
8
BLACK
6
CONTINUOUS
10
196.673
20
-55.6619
11
196.678
21
-55.7062
0
LINE
8
BLACK
6
CONTINUOUS
10
196.678
20
-55.7062
11
196.673
21
-55.7505
0
LINE
8
BLACK
6
CONTINUOUS
10
196.673
20
-55.7505
11
196.661
21
-55.7931
0
LINE
8
BLACK
6
CONTINUOUS
10
196.661
20
-55.7931
11
196.64
21
-55.8324
0
LINE
8
BLACK
6
CONTINUOUS
10
196.64
20
-55.8324
11
196.611
21
-55.8668
0
LINE
8
BLACK
6
CONTINUOUS
10
196.611
20
-55.8668
11
196.577
21
-55.8951
0
LINE
8
BLACK
6
CONTINUOUS
10
196.577
20
-55.8951
11
196.538
21
-55.916
0
LINE
8
BLACK
6
CONTINUOUS
10
196.538
20
-55.916
11
196.495
21
-55.929
0
LINE
8
BLACK
6
CONTINUOUS
10
196.495
20
-55.929
11
196.451
21
-55.9333
0
LINE
8
BLACK
6
CONTINUOUS
10
196.451
20
-55.9333
11
196.406
21
-55.929
0
LINE
8
BLACK
6
CONTINUOUS
10
196.406
20
-55.929
11
196.364
21
-55.916
0
LINE
8
BLACK
6
CONTINUOUS
10
196.364
20
-55.916
11
196.334
21
-55.9003
0
LINE
8
BLACK
6
CONTINUOUS
10
196.334
20
-55.9003
11
195.552
21
-55.3772
0
LINE
8
BLACK
6
CONTINUOUS
10
195.552
20
-55.3772
11
194.683
21
-55.2044
0
LINE
8
BLACK
6
CONTINUOUS
10
194.683
20
-55.2044
11
193.814
21
-55.3772
0
LINE
8
BLACK
6
CONTINUOUS
10
193.814
20
-55.3772
11
193.059
21
-55.882
0
LINE
8
BLACK
6
CONTINUOUS
10
193.059
20
-55.882
11
192.874
21
-56.0667
0
LINE
8
BLACK
6
CONTINUOUS
10
192.874
20
-56.0667
11
192.867
21
-56.076
0
LINE
8
BLACK
6
CONTINUOUS
10
192.867
20
-56.076
11
192.841
21
-56.0972
0
LINE
8
BLACK
6
CONTINUOUS
10
192.841
20
-56.0972
11
192.84
21
-56.0977
0
LINE
8
BLACK
6
CONTINUOUS
10
192.84
20
-56.0977
11
192.832
21
-56.1042
0
LINE
8
BLACK
6
CONTINUOUS
10
192.832
20
-56.1042
11
192.823
21
-56.109
0
LINE
8
BLACK
6
CONTINUOUS
10
192.823
20
-56.109
11
192.174
21
-56.5431
0
LINE
8
BLACK
6
CONTINUOUS
10
192.174
20
-56.5431
11
192.144
21
-56.5588
0
LINE
8
BLACK
6
CONTINUOUS
10
192.144
20
-56.5588
11
192.101
21
-56.5717
0
LINE
8
BLACK
6
CONTINUOUS
10
192.101
20
-56.5717
11
192.057
21
-56.5761
0
LINE
8
BLACK
6
CONTINUOUS
10
192.057
20
-56.5761
11
192.013
21
-56.5717
0
LINE
8
BLACK
6
CONTINUOUS
10
192.013
20
-56.5717
11
191.97
21
-56.5588
0
LINE
8
BLACK
6
CONTINUOUS
10
191.97
20
-56.5588
11
191.931
21
-56.5378
0
LINE
8
BLACK
6
CONTINUOUS
10
191.931
20
-56.5378
11
191.897
21
-56.5096
0
LINE
8
BLACK
6
CONTINUOUS
10
191.897
20
-56.5096
11
191.868
21
-56.4752
0
LINE
8
BLACK
6
CONTINUOUS
10
191.868
20
-56.4752
11
191.847
21
-56.4359
0
LINE
8
BLACK
6
CONTINUOUS
10
191.847
20
-56.4359
11
191.834
21
-56.3933
0
LINE
8
BLACK
6
CONTINUOUS
10
191.834
20
-56.3933
11
191.83
21
-56.349
0
LINE
8
BLACK
6
CONTINUOUS
10
191.83
20
-56.349
11
191.834
21
-56.3047
0
LINE
8
BLACK
6
CONTINUOUS
10
191.834
20
-56.3047
11
191.847
21
-56.2621
0
LINE
8
BLACK
6
CONTINUOUS
10
191.847
20
-56.2621
11
191.868
21
-56.2228
0
LINE
8
BLACK
6
CONTINUOUS
10
191.868
20
-56.2228
11
191.897
21
-56.1884
0
LINE
8
BLACK
6
CONTINUOUS
10
191.897
20
-56.1884
11
191.922
21
-56.1672
0
LINE
8
BLACK
6
CONTINUOUS
10
191.922
20
-56.1672
11
192.562
21
-55.7396
0
LINE
8
BLACK
6
CONTINUOUS
10
192.562
20
-55.7396
11
192.747
21
-55.555
0
LINE
8
BLACK
6
CONTINUOUS
10
192.747
20
-55.555
11
192.755
21
-55.5457
0
LINE
8
BLACK
6
CONTINUOUS
10
192.755
20
-55.5457
11
192.78
21
-55.5245
0
LINE
8
BLACK
6
CONTINUOUS
10
192.78
20
-55.5245
11
192.781
21
-55.524
0
LINE
8
BLACK
6
CONTINUOUS
10
192.781
20
-55.524
11
192.789
21
-55.5175
0
LINE
8
BLACK
6
CONTINUOUS
10
192.789
20
-55.5175
11
192.798
21
-55.5127
0
LINE
8
BLACK
6
CONTINUOUS
10
192.798
20
-55.5127
11
193.591
21
-54.9826
0
LINE
8
BLACK
6
CONTINUOUS
10
193.591
20
-54.9826
11
193.6
21
-54.9755
0
LINE
8
BLACK
6
CONTINUOUS
10
193.6
20
-54.9755
11
193.613
21
-54.9684
0
LINE
8
BLACK
6
CONTINUOUS
10
193.613
20
-54.9684
11
193.639
21
-54.9545
0
LINE
8
BLACK
6
CONTINUOUS
10
193.639
20
-54.9545
11
193.682
21
-54.9416
0
LINE
8
BLACK
6
CONTINUOUS
10
193.682
20
-54.9416
11
193.693
21
-54.9405
0
LINE
8
BLACK
6
CONTINUOUS
10
193.693
20
-54.9405
11
194.628
21
-54.7545
0
LINE
8
BLACK
6
CONTINUOUS
10
194.628
20
-54.7545
11
194.639
21
-54.7513
0
LINE
8
BLACK
6
CONTINUOUS
10
194.639
20
-54.7513
11
194.65
21
-54.7502
0
LINE
8
BLACK
6
CONTINUOUS
10
194.65
20
-54.7502
11
194.65
21
-54.7502
0
LINE
8
BLACK
6
CONTINUOUS
10
194.65
20
-54.7502
11
194.683
21
-54.7469
0
LINE
8
BLACK
6
CONTINUOUS
10
194.683
20
-54.7469
11
194.716
21
-54.7502
0
LINE
8
BLACK
6
CONTINUOUS
10
236.989
20
-56.1046
11
236.936
21
-56.1046
0
LINE
8
BLACK
6
CONTINUOUS
10
236.936
20
-56.1046
11
236.884
21
-56.0942
0
LINE
8
BLACK
6
CONTINUOUS
10
236.884
20
-56.0942
11
236.876
21
-56.0907
0
LINE
8
BLACK
6
CONTINUOUS
10
236.876
20
-56.0907
11
236.35
21
-56.0907
0
LINE
8
BLACK
6
CONTINUOUS
10
236.35
20
-56.0907
11
236.341
21
-56.0942
0
LINE
8
BLACK
6
CONTINUOUS
10
236.341
20
-56.0942
11
236.289
21
-56.1046
0
LINE
8
BLACK
6
CONTINUOUS
10
236.289
20
-56.1046
11
236.236
21
-56.1046
0
LINE
8
BLACK
6
CONTINUOUS
10
236.236
20
-56.1046
11
236.184
21
-56.0942
0
LINE
8
BLACK
6
CONTINUOUS
10
236.184
20
-56.0942
11
236.176
21
-56.0907
0
LINE
8
BLACK
6
CONTINUOUS
10
236.176
20
-56.0907
11
235.65
21
-56.0907
0
LINE
8
BLACK
6
CONTINUOUS
10
235.65
20
-56.0907
11
235.641
21
-56.0942
0
LINE
8
BLACK
6
CONTINUOUS
10
235.641
20
-56.0942
11
235.589
21
-56.1046
0
LINE
8
BLACK
6
CONTINUOUS
10
235.589
20
-56.1046
11
235.536
21
-56.1046
0
LINE
8
BLACK
6
CONTINUOUS
10
235.536
20
-56.1046
11
235.484
21
-56.0942
0
LINE
8
BLACK
6
CONTINUOUS
10
235.484
20
-56.0942
11
235.476
21
-56.0907
0
LINE
8
BLACK
6
CONTINUOUS
10
235.476
20
-56.0907
11
234.95
21
-56.0907
0
LINE
8
BLACK
6
CONTINUOUS
10
234.95
20
-56.0907
11
234.941
21
-56.0942
0
LINE
8
BLACK
6
CONTINUOUS
10
234.941
20
-56.0942
11
234.889
21
-56.1046
0
LINE
8
BLACK
6
CONTINUOUS
10
234.889
20
-56.1046
11
234.836
21
-56.1046
0
LINE
8
BLACK
6
CONTINUOUS
10
234.836
20
-56.1046
11
234.784
21
-56.0942
0
LINE
8
BLACK
6
CONTINUOUS
10
234.784
20
-56.0942
11
234.776
21
-56.0907
0
LINE
8
BLACK
6
CONTINUOUS
10
234.776
20
-56.0907
11
234.608
21
-56.0907
0
LINE
8
BLACK
6
CONTINUOUS
10
234.608
20
-56.0907
11
234.539
21
-56.0278
0
LINE
8
BLACK
6
CONTINUOUS
10
234.539
20
-56.0278
11
234.508
21
-55.9746
0
LINE
8
BLACK
6
CONTINUOUS
10
234.508
20
-55.9746
11
234.508
21
-55.5923
0
LINE
8
BLACK
6
CONTINUOUS
10
234.508
20
-55.5923
11
234.575
21
-55.5835
0
LINE
8
BLACK
6
CONTINUOUS
10
234.575
20
-55.5835
11
234.77
21
-55.5835
0
LINE
8
BLACK
6
CONTINUOUS
10
234.77
20
-55.5835
11
234.784
21
-55.5775
0
LINE
8
BLACK
6
CONTINUOUS
10
234.784
20
-55.5775
11
234.836
21
-55.5672
0
LINE
8
BLACK
6
CONTINUOUS
10
234.836
20
-55.5672
11
234.889
21
-55.5672
0
LINE
8
BLACK
6
CONTINUOUS
10
234.889
20
-55.5672
11
234.941
21
-55.5775
0
LINE
8
BLACK
6
CONTINUOUS
10
234.941
20
-55.5775
11
234.956
21
-55.5835
0
LINE
8
BLACK
6
CONTINUOUS
10
234.956
20
-55.5835
11
235.47
21
-55.5835
0
LINE
8
BLACK
6
CONTINUOUS
10
235.47
20
-55.5835
11
235.484
21
-55.5775
0
LINE
8
BLACK
6
CONTINUOUS
10
235.484
20
-55.5775
11
235.536
21
-55.5672
0
LINE
8
BLACK
6
CONTINUOUS
10
235.536
20
-55.5672
11
235.589
21
-55.5672
0
LINE
8
BLACK
6
CONTINUOUS
10
235.589
20
-55.5672
11
235.641
21
-55.5775
0
LINE
8
BLACK
6
CONTINUOUS
10
235.641
20
-55.5775
11
235.656
21
-55.5835
0
LINE
8
BLACK
6
CONTINUOUS
10
235.656
20
-55.5835
11
236.17
21
-55.5835
0
LINE
8
BLACK
6
CONTINUOUS
10
236.17
20
-55.5835
11
236.184
21
-55.5775
0
LINE
8
BLACK
6
CONTINUOUS
10
236.184
20
-55.5775
11
236.236
21
-55.5672
0
LINE
8
BLACK
6
CONTINUOUS
10
236.236
20
-55.5672
11
236.289
21
-55.5672
0
LINE
8
BLACK
6
CONTINUOUS
10
236.289
20
-55.5672
11
236.341
21
-55.5775
0
LINE
8
BLACK
6
CONTINUOUS
10
236.341
20
-55.5775
11
236.356
21
-55.5835
0
LINE
8
BLACK
6
CONTINUOUS
10
236.356
20
-55.5835
11
236.87
21
-55.5835
0
LINE
8
BLACK
6
CONTINUOUS
10
236.87
20
-55.5835
11
236.884
21
-55.5775
0
LINE
8
BLACK
6
CONTINUOUS
10
236.884
20
-55.5775
11
236.936
21
-55.5672
0
LINE
8
BLACK
6
CONTINUOUS
10
236.936
20
-55.5672
11
236.989
21
-55.5672
0
LINE
8
BLACK
6
CONTINUOUS
10
236.989
20
-55.5672
11
237.041
21
-55.5775
0
LINE
8
BLACK
6
CONTINUOUS
10
237.041
20
-55.5775
11
237.056
21
-55.5835
0
LINE
8
BLACK
6
CONTINUOUS
10
237.056
20
-55.5835
11
237.43
21
-55.5835
0
LINE
8
BLACK
6
CONTINUOUS
10
237.43
20
-55.5835
11
237.468
21
-55.576
0
LINE
8
BLACK
6
CONTINUOUS
10
237.468
20
-55.576
11
237.521
21
-55.576
0
LINE
8
BLACK
6
CONTINUOUS
10
237.521
20
-55.576
11
237.573
21
-55.5863
0
LINE
8
BLACK
6
CONTINUOUS
10
237.573
20
-55.5863
11
237.606
21
-55.5999
0
LINE
8
BLACK
6
CONTINUOUS
10
237.606
20
-55.5999
11
238.017
21
-55.6545
0
LINE
8
BLACK
6
CONTINUOUS
10
238.017
20
-55.6545
11
238.076
21
-55.7246
0
LINE
8
BLACK
6
CONTINUOUS
10
238.076
20
-55.7246
11
238.06
21
-55.8611
0
LINE
8
BLACK
6
CONTINUOUS
10
238.06
20
-55.8611
11
238.031
21
-55.8808
0
LINE
8
BLACK
6
CONTINUOUS
10
238.031
20
-55.8808
11
237.987
21
-55.9469
0
LINE
8
BLACK
6
CONTINUOUS
10
237.987
20
-55.9469
11
237.971
21
-56.025
0
LINE
8
BLACK
6
CONTINUOUS
10
237.971
20
-56.025
11
237.973
21
-56.0322
0
LINE
8
BLACK
6
CONTINUOUS
10
237.973
20
-56.0322
11
237.875
21
-56.1474
0
LINE
8
BLACK
6
CONTINUOUS
10
237.875
20
-56.1474
11
237.56
21
-56.1056
0
LINE
8
BLACK
6
CONTINUOUS
10
237.56
20
-56.1056
11
237.521
21
-56.1134
0
LINE
8
BLACK
6
CONTINUOUS
10
237.521
20
-56.1134
11
237.468
21
-56.1134
0
LINE
8
BLACK
6
CONTINUOUS
10
237.468
20
-56.1134
11
237.416
21
-56.103
0
LINE
8
BLACK
6
CONTINUOUS
10
237.416
20
-56.103
11
237.386
21
-56.0907
0
LINE
8
BLACK
6
CONTINUOUS
10
237.386
20
-56.0907
11
237.05
21
-56.0907
0
LINE
8
BLACK
6
CONTINUOUS
10
237.05
20
-56.0907
11
237.041
21
-56.0942
0
LINE
8
BLACK
6
CONTINUOUS
10
237.041
20
-56.0942
11
236.989
21
-56.1046
0
LINE
8
BLACK
6
CONTINUOUS
10
156.536
20
-52.1741
11
168.506
21
-52.1741
0
LINE
8
BLACK
6
CONTINUOUS
10
168.506
20
-52.1741
11
168.539
21
-52.1774
0
LINE
8
BLACK
6
CONTINUOUS
10
168.539
20
-52.1774
11
168.582
21
-52.1903
0
LINE
8
BLACK
6
CONTINUOUS
10
168.582
20
-52.1903
11
168.621
21
-52.2113
0
LINE
8
BLACK
6
CONTINUOUS
10
168.621
20
-52.2113
11
168.656
21
-52.2395
0
LINE
8
BLACK
6
CONTINUOUS
10
168.656
20
-52.2395
11
168.684
21
-52.2739
0
LINE
8
BLACK
6
CONTINUOUS
10
168.684
20
-52.2739
11
168.705
21
-52.3131
0
LINE
8
BLACK
6
CONTINUOUS
10
168.705
20
-52.3131
11
168.718
21
-52.3557
0
LINE
8
BLACK
6
CONTINUOUS
10
168.718
20
-52.3557
11
168.722
21
-52.4
0
LINE
8
BLACK
6
CONTINUOUS
10
168.722
20
-52.4
11
168.718
21
-52.4443
0
LINE
8
BLACK
6
CONTINUOUS
10
168.718
20
-52.4443
11
168.705
21
-52.4869
0
LINE
8
BLACK
6
CONTINUOUS
10
168.705
20
-52.4869
11
168.684
21
-52.5261
0
LINE
8
BLACK
6
CONTINUOUS
10
168.684
20
-52.5261
11
168.656
21
-52.5605
0
LINE
8
BLACK
6
CONTINUOUS
10
168.656
20
-52.5605
11
168.621
21
-52.5887
0
LINE
8
BLACK
6
CONTINUOUS
10
168.621
20
-52.5887
11
168.582
21
-52.6097
0
LINE
8
BLACK
6
CONTINUOUS
10
168.582
20
-52.6097
11
168.539
21
-52.6226
0
LINE
8
BLACK
6
CONTINUOUS
10
168.539
20
-52.6226
11
168.506
21
-52.6259
0
LINE
8
BLACK
6
CONTINUOUS
10
168.506
20
-52.6259
11
156.547
21
-52.6259
0
LINE
8
BLACK
6
CONTINUOUS
10
156.547
20
-52.6259
11
155.848
21
-52.765
0
LINE
8
BLACK
6
CONTINUOUS
10
155.848
20
-52.765
11
155.274
21
-53.1487
0
LINE
8
BLACK
6
CONTINUOUS
10
155.274
20
-53.1487
11
154.89
21
-53.7228
0
LINE
8
BLACK
6
CONTINUOUS
10
154.89
20
-53.7228
11
154.744
21
-54.455
0
LINE
8
BLACK
6
CONTINUOUS
10
154.744
20
-54.455
11
154.735
21
-54.4869
0
LINE
8
BLACK
6
CONTINUOUS
10
154.735
20
-54.4869
11
154.714
21
-54.5261
0
LINE
8
BLACK
6
CONTINUOUS
10
154.714
20
-54.5261
11
154.686
21
-54.5605
0
LINE
8
BLACK
6
CONTINUOUS
10
154.686
20
-54.5605
11
154.651
21
-54.5887
0
LINE
8
BLACK
6
CONTINUOUS
10
154.651
20
-54.5887
11
154.612
21
-54.6097
0
LINE
8
BLACK
6
CONTINUOUS
10
154.612
20
-54.6097
11
154.569
21
-54.6226
0
LINE
8
BLACK
6
CONTINUOUS
10
154.569
20
-54.6226
11
154.525
21
-54.627
0
LINE
8
BLACK
6
CONTINUOUS
10
154.525
20
-54.627
11
154.481
21
-54.6226
0
LINE
8
BLACK
6
CONTINUOUS
10
154.481
20
-54.6226
11
154.438
21
-54.6097
0
LINE
8
BLACK
6
CONTINUOUS
10
154.438
20
-54.6097
11
154.399
21
-54.5887
0
LINE
8
BLACK
6
CONTINUOUS
10
154.399
20
-54.5887
11
154.364
21
-54.5605
0
LINE
8
BLACK
6
CONTINUOUS
10
154.364
20
-54.5605
11
154.336
21
-54.5261
0
LINE
8
BLACK
6
CONTINUOUS
10
154.336
20
-54.5261
11
154.315
21
-54.4869
0
LINE
8
BLACK
6
CONTINUOUS
10
154.315
20
-54.4869
11
154.302
21
-54.4443
0
LINE
8
BLACK
6
CONTINUOUS
10
154.302
20
-54.4443
11
154.298
21
-54.4
0
LINE
8
BLACK
6
CONTINUOUS
10
154.298
20
-54.4
11
154.301
21
-54.3668
0
LINE
8
BLACK
6
CONTINUOUS
10
154.301
20
-54.3668
11
154.454
21
-53.6014
0
LINE
8
BLACK
6
CONTINUOUS
10
154.454
20
-53.6014
11
154.455
21
-53.5903
0
LINE
8
BLACK
6
CONTINUOUS
10
154.455
20
-53.5903
11
154.468
21
-53.5478
0
LINE
8
BLACK
6
CONTINUOUS
10
154.468
20
-53.5478
11
154.483
21
-53.5183
0
LINE
8
BLACK
6
CONTINUOUS
10
154.483
20
-53.5183
11
154.488
21
-53.5085
0
LINE
8
BLACK
6
CONTINUOUS
10
154.488
20
-53.5085
11
154.496
21
-53.4999
0
LINE
8
BLACK
6
CONTINUOUS
10
154.496
20
-53.4999
11
154.917
21
-52.8695
0
LINE
8
BLACK
6
CONTINUOUS
10
154.917
20
-52.8695
11
154.922
21
-52.8597
0
LINE
8
BLACK
6
CONTINUOUS
10
154.922
20
-52.8597
11
154.929
21
-52.8511
0
LINE
8
BLACK
6
CONTINUOUS
10
154.929
20
-52.8511
11
154.929
21
-52.8511
0
LINE
8
BLACK
6
CONTINUOUS
10
154.929
20
-52.8511
11
154.95
21
-52.8253
0
LINE
8
BLACK
6
CONTINUOUS
10
154.95
20
-52.8253
11
154.985
21
-52.797
0
LINE
8
BLACK
6
CONTINUOUS
10
154.985
20
-52.797
11
154.995
21
-52.7918
0
LINE
8
BLACK
6
CONTINUOUS
10
154.995
20
-52.7918
11
155.625
21
-52.3706
0
LINE
8
BLACK
6
CONTINUOUS
10
155.625
20
-52.3706
11
155.634
21
-52.3635
0
LINE
8
BLACK
6
CONTINUOUS
10
155.634
20
-52.3635
11
155.643
21
-52.3582
0
LINE
8
BLACK
6
CONTINUOUS
10
155.643
20
-52.3582
11
155.643
21
-52.3582
0
LINE
8
BLACK
6
CONTINUOUS
10
155.643
20
-52.3582
11
155.673
21
-52.3425
0
LINE
8
BLACK
6
CONTINUOUS
10
155.673
20
-52.3425
11
155.715
21
-52.3296
0
LINE
8
BLACK
6
CONTINUOUS
10
155.715
20
-52.3296
11
155.726
21
-52.3285
0
LINE
8
BLACK
6
CONTINUOUS
10
155.726
20
-52.3285
11
156.47
21
-52.1806
0
LINE
8
BLACK
6
CONTINUOUS
10
156.47
20
-52.1806
11
156.481
21
-52.1774
0
LINE
8
BLACK
6
CONTINUOUS
10
156.481
20
-52.1774
11
156.514
21
-52.1741
0
LINE
8
BLACK
6
CONTINUOUS
10
156.514
20
-52.1741
11
156.514
21
-52.1741
0
LINE
8
BLACK
6
CONTINUOUS
10
156.514
20
-52.1741
11
156.525
21
-52.173
0
LINE
8
BLACK
6
CONTINUOUS
10
156.525
20
-52.173
11
156.536
21
-52.1741
0
LINE
8
BLACK
6
CONTINUOUS
10
141.925
20
-54.04
11
137.025
21
-54.04
0
LINE
8
BLACK
6
CONTINUOUS
10
137.025
20
-54.04
11
137.025
21
-51.275
0
LINE
8
BLACK
6
CONTINUOUS
10
137.025
20
-51.275
11
141.925
21
-51.275
0
LINE
8
BLACK
6
CONTINUOUS
10
141.925
20
-51.275
11
141.925
21
-54.04
0
LINE
8
BLACK
6
CONTINUOUS
10
247.261
20
-51.4741
11
247.261
21
-51.4741
0
LINE
8
BLACK
6
CONTINUOUS
10
247.261
20
-51.4741
11
247.294
21
-51.4774
0
LINE
8
BLACK
6
CONTINUOUS
10
247.294
20
-51.4774
11
247.305
21
-51.4806
0
LINE
8
BLACK
6
CONTINUOUS
10
247.305
20
-51.4806
11
248.07
21
-51.6328
0
LINE
8
BLACK
6
CONTINUOUS
10
248.07
20
-51.6328
11
248.102
21
-51.6425
0
LINE
8
BLACK
6
CONTINUOUS
10
248.102
20
-51.6425
11
248.141
21
-51.6635
0
LINE
8
BLACK
6
CONTINUOUS
10
248.141
20
-51.6635
11
248.176
21
-51.6917
0
LINE
8
BLACK
6
CONTINUOUS
10
248.176
20
-51.6917
11
248.204
21
-51.7261
0
LINE
8
BLACK
6
CONTINUOUS
10
248.204
20
-51.7261
11
248.225
21
-51.7654
0
LINE
8
BLACK
6
CONTINUOUS
10
248.225
20
-51.7654
11
248.238
21
-51.808
0
LINE
8
BLACK
6
CONTINUOUS
10
248.238
20
-51.808
11
248.242
21
-51.8522
0
LINE
8
BLACK
6
CONTINUOUS
10
248.242
20
-51.8522
11
248.238
21
-51.8965
0
LINE
8
BLACK
6
CONTINUOUS
10
248.238
20
-51.8965
11
248.225
21
-51.9391
0
LINE
8
BLACK
6
CONTINUOUS
10
248.225
20
-51.9391
11
248.204
21
-51.9784
0
LINE
8
BLACK
6
CONTINUOUS
10
248.204
20
-51.9784
11
248.176
21
-52.0128
0
LINE
8
BLACK
6
CONTINUOUS
10
248.176
20
-52.0128
11
248.141
21
-52.041
0
LINE
8
BLACK
6
CONTINUOUS
10
248.141
20
-52.041
11
248.102
21
-52.062
0
LINE
8
BLACK
6
CONTINUOUS
10
248.102
20
-52.062
11
248.06
21
-52.0749
0
LINE
8
BLACK
6
CONTINUOUS
10
248.06
20
-52.0749
11
248.015
21
-52.0793
0
LINE
8
BLACK
6
CONTINUOUS
10
248.015
20
-52.0793
11
247.982
21
-52.076
0
LINE
8
BLACK
6
CONTINUOUS
10
247.982
20
-52.076
11
247.228
21
-51.9259
0
LINE
8
BLACK
6
CONTINUOUS
10
247.228
20
-51.9259
11
243.797
21
-51.9259
0
LINE
8
BLACK
6
CONTINUOUS
10
243.797
20
-51.9259
11
243.098
21
-52.0651
0
LINE
8
BLACK
6
CONTINUOUS
10
243.098
20
-52.0651
11
242.524
21
-52.4487
0
LINE
8
BLACK
6
CONTINUOUS
10
242.524
20
-52.4487
11
242.109
21
-53.0694
0
LINE
8
BLACK
6
CONTINUOUS
10
242.109
20
-53.0694
11
242.088
21
-53.0952
0
LINE
8
BLACK
6
CONTINUOUS
10
242.088
20
-53.0952
11
242.053
21
-53.1234
0
LINE
8
BLACK
6
CONTINUOUS
10
242.053
20
-53.1234
11
242.014
21
-53.1444
0
LINE
8
BLACK
6
CONTINUOUS
10
242.014
20
-53.1444
11
241.972
21
-53.1573
0
LINE
8
BLACK
6
CONTINUOUS
10
241.972
20
-53.1573
11
241.927
21
-53.1616
0
LINE
8
BLACK
6
CONTINUOUS
10
241.927
20
-53.1616
11
241.883
21
-53.1573
0
LINE
8
BLACK
6
CONTINUOUS
10
241.883
20
-53.1573
11
241.84
21
-53.1444
0
LINE
8
BLACK
6
CONTINUOUS
10
241.84
20
-53.1444
11
241.801
21
-53.1234
0
LINE
8
BLACK
6
CONTINUOUS
10
241.801
20
-53.1234
11
241.767
21
-53.0952
0
LINE
8
BLACK
6
CONTINUOUS
10
241.767
20
-53.0952
11
241.738
21
-53.0608
0
LINE
8
BLACK
6
CONTINUOUS
10
241.738
20
-53.0608
11
241.718
21
-53.0215
0
LINE
8
BLACK
6
CONTINUOUS
10
241.718
20
-53.0215
11
241.705
21
-52.9789
0
LINE
8
BLACK
6
CONTINUOUS
10
241.705
20
-52.9789
11
241.7
21
-52.9346
0
LINE
8
BLACK
6
CONTINUOUS
10
241.7
20
-52.9346
11
241.705
21
-52.8904
0
LINE
8
BLACK
6
CONTINUOUS
10
241.705
20
-52.8904
11
241.718
21
-52.8478
0
LINE
8
BLACK
6
CONTINUOUS
10
241.718
20
-52.8478
11
241.733
21
-52.8184
0
LINE
8
BLACK
6
CONTINUOUS
10
241.733
20
-52.8184
11
242.167
21
-52.1695
0
LINE
8
BLACK
6
CONTINUOUS
10
242.167
20
-52.1695
11
242.172
21
-52.1597
0
LINE
8
BLACK
6
CONTINUOUS
10
242.172
20
-52.1597
11
242.179
21
-52.1511
0
LINE
8
BLACK
6
CONTINUOUS
10
242.179
20
-52.1511
11
242.179
21
-52.1511
0
LINE
8
BLACK
6
CONTINUOUS
10
242.179
20
-52.1511
11
242.2
21
-52.1253
0
LINE
8
BLACK
6
CONTINUOUS
10
242.2
20
-52.1253
11
242.235
21
-52.0971
0
LINE
8
BLACK
6
CONTINUOUS
10
242.235
20
-52.0971
11
242.245
21
-52.0918
0
LINE
8
BLACK
6
CONTINUOUS
10
242.245
20
-52.0918
11
242.875
21
-51.6706
0
LINE
8
BLACK
6
CONTINUOUS
10
242.875
20
-51.6706
11
242.884
21
-51.6635
0
LINE
8
BLACK
6
CONTINUOUS
10
242.884
20
-51.6635
11
242.893
21
-51.6583
0
LINE
8
BLACK
6
CONTINUOUS
10
242.893
20
-51.6583
11
242.893
21
-51.6582
0
LINE
8
BLACK
6
CONTINUOUS
10
242.893
20
-51.6582
11
242.923
21
-51.6425
0
LINE
8
BLACK
6
CONTINUOUS
10
242.923
20
-51.6425
11
242.965
21
-51.6296
0
LINE
8
BLACK
6
CONTINUOUS
10
242.965
20
-51.6296
11
242.976
21
-51.6285
0
LINE
8
BLACK
6
CONTINUOUS
10
242.976
20
-51.6285
11
243.72
21
-51.4806
0
LINE
8
BLACK
6
CONTINUOUS
10
243.72
20
-51.4806
11
243.731
21
-51.4774
0
LINE
8
BLACK
6
CONTINUOUS
10
243.731
20
-51.4774
11
243.764
21
-51.4741
0
LINE
8
BLACK
6
CONTINUOUS
10
243.764
20
-51.4741
11
243.764
21
-51.4741
0
LINE
8
BLACK
6
CONTINUOUS
10
243.764
20
-51.4741
11
243.775
21
-51.473
0
LINE
8
BLACK
6
CONTINUOUS
10
243.775
20
-51.473
11
243.786
21
-51.4741
0
LINE
8
BLACK
6
CONTINUOUS
10
243.786
20
-51.4741
11
247.239
21
-51.4741
0
LINE
8
BLACK
6
CONTINUOUS
10
247.239
20
-51.4741
11
247.25
21
-51.473
0
LINE
8
BLACK
6
CONTINUOUS
10
247.25
20
-51.473
11
247.261
21
-51.4741
0
LINE
8
BLACK
6
CONTINUOUS
10
185.413
20
-52.1523
11
185.455
21
-52.1653
0
LINE
8
BLACK
6
CONTINUOUS
10
185.455
20
-52.1653
11
185.495
21
-52.1862
0
LINE
8
BLACK
6
CONTINUOUS
10
185.495
20
-52.1862
11
185.529
21
-52.2145
0
LINE
8
BLACK
6
CONTINUOUS
10
185.529
20
-52.2145
11
185.557
21
-52.2489
0
LINE
8
BLACK
6
CONTINUOUS
10
185.557
20
-52.2489
11
185.578
21
-52.2881
0
LINE
8
BLACK
6
CONTINUOUS
10
185.578
20
-52.2881
11
185.591
21
-52.3307
0
LINE
8
BLACK
6
CONTINUOUS
10
185.591
20
-52.3307
11
185.595
21
-52.375
0
LINE
8
BLACK
6
CONTINUOUS
10
185.595
20
-52.375
11
185.591
21
-52.4193
0
LINE
8
BLACK
6
CONTINUOUS
10
185.591
20
-52.4193
11
185.578
21
-52.4619
0
LINE
8
BLACK
6
CONTINUOUS
10
185.578
20
-52.4619
11
185.557
21
-52.5011
0
LINE
8
BLACK
6
CONTINUOUS
10
185.557
20
-52.5011
11
185.529
21
-52.5355
0
LINE
8
BLACK
6
CONTINUOUS
10
185.529
20
-52.5355
11
185.495
21
-52.5637
0
LINE
8
BLACK
6
CONTINUOUS
10
185.495
20
-52.5637
11
185.455
21
-52.5847
0
LINE
8
BLACK
6
CONTINUOUS
10
185.455
20
-52.5847
11
185.413
21
-52.5976
0
LINE
8
BLACK
6
CONTINUOUS
10
185.413
20
-52.5976
11
185.38
21
-52.6009
0
LINE
8
BLACK
6
CONTINUOUS
10
185.38
20
-52.6009
11
175.231
21
-52.6009
0
LINE
8
BLACK
6
CONTINUOUS
10
175.231
20
-52.6009
11
175.198
21
-52.5976
0
LINE
8
BLACK
6
CONTINUOUS
10
175.198
20
-52.5976
11
175.155
21
-52.5847
0
LINE
8
BLACK
6
CONTINUOUS
10
175.155
20
-52.5847
11
175.116
21
-52.5637
0
LINE
8
BLACK
6
CONTINUOUS
10
175.116
20
-52.5637
11
175.082
21
-52.5355
0
LINE
8
BLACK
6
CONTINUOUS
10
175.082
20
-52.5355
11
175.053
21
-52.5011
0
LINE
8
BLACK
6
CONTINUOUS
10
175.053
20
-52.5011
11
175.032
21
-52.4619
0
LINE
8
BLACK
6
CONTINUOUS
10
175.032
20
-52.4619
11
175.019
21
-52.4193
0
LINE
8
BLACK
6
CONTINUOUS
10
175.019
20
-52.4193
11
175.015
21
-52.375
0
LINE
8
BLACK
6
CONTINUOUS
10
175.015
20
-52.375
11
175.019
21
-52.3307
0
LINE
8
BLACK
6
CONTINUOUS
10
175.019
20
-52.3307
11
175.032
21
-52.2881
0
LINE
8
BLACK
6
CONTINUOUS
10
175.032
20
-52.2881
11
175.053
21
-52.2489
0
LINE
8
BLACK
6
CONTINUOUS
10
175.053
20
-52.2489
11
175.082
21
-52.2145
0
LINE
8
BLACK
6
CONTINUOUS
10
175.082
20
-52.2145
11
175.116
21
-52.1862
0
LINE
8
BLACK
6
CONTINUOUS
10
175.116
20
-52.1862
11
175.155
21
-52.1653
0
LINE
8
BLACK
6
CONTINUOUS
10
175.155
20
-52.1653
11
175.198
21
-52.1523
0
LINE
8
BLACK
6
CONTINUOUS
10
175.198
20
-52.1523
11
175.231
21
-52.1491
0
LINE
8
BLACK
6
CONTINUOUS
10
175.231
20
-52.1491
11
185.38
21
-52.1491
0
LINE
8
BLACK
6
CONTINUOUS
10
185.38
20
-52.1491
11
185.413
21
-52.1523
0
LINE
8
BLACK
6
CONTINUOUS
10
227.357
20
-45.6135
11
227.813
21
-45.8026
0
LINE
8
BLACK
6
CONTINUOUS
10
227.813
20
-45.8026
11
228.224
21
-46.077
0
LINE
8
BLACK
6
CONTINUOUS
10
228.224
20
-46.077
11
228.573
21
-46.4263
0
LINE
8
BLACK
6
CONTINUOUS
10
228.573
20
-46.4263
11
228.847
21
-46.8371
0
LINE
8
BLACK
6
CONTINUOUS
10
228.847
20
-46.8371
11
229.036
21
-47.2935
0
LINE
8
BLACK
6
CONTINUOUS
10
229.036
20
-47.2935
11
229.133
21
-47.778
0
LINE
8
BLACK
6
CONTINUOUS
10
229.133
20
-47.778
11
229.133
21
-48.272
0
LINE
8
BLACK
6
CONTINUOUS
10
229.133
20
-48.272
11
229.036
21
-48.7565
0
LINE
8
BLACK
6
CONTINUOUS
10
229.036
20
-48.7565
11
228.847
21
-49.2129
0
LINE
8
BLACK
6
CONTINUOUS
10
228.847
20
-49.2129
11
228.573
21
-49.6237
0
LINE
8
BLACK
6
CONTINUOUS
10
228.573
20
-49.6237
11
228.224
21
-49.973
0
LINE
8
BLACK
6
CONTINUOUS
10
228.224
20
-49.973
11
227.813
21
-50.2474
0
LINE
8
BLACK
6
CONTINUOUS
10
227.813
20
-50.2474
11
227.357
21
-50.4365
0
LINE
8
BLACK
6
CONTINUOUS
10
227.357
20
-50.4365
11
226.872
21
-50.5329
0
LINE
8
BLACK
6
CONTINUOUS
10
226.872
20
-50.5329
11
226.378
21
-50.5329
0
LINE
8
BLACK
6
CONTINUOUS
10
226.378
20
-50.5329
11
225.893
21
-50.4365
0
LINE
8
BLACK
6
CONTINUOUS
10
225.893
20
-50.4365
11
225.437
21
-50.2474
0
LINE
8
BLACK
6
CONTINUOUS
10
225.437
20
-50.2474
11
225.026
21
-49.973
0
LINE
8
BLACK
6
CONTINUOUS
10
225.026
20
-49.973
11
224.677
21
-49.6237
0
LINE
8
BLACK
6
CONTINUOUS
10
224.677
20
-49.6237
11
224.403
21
-49.2129
0
LINE
8
BLACK
6
CONTINUOUS
10
224.403
20
-49.2129
11
224.214
21
-48.7565
0
LINE
8
BLACK
6
CONTINUOUS
10
224.214
20
-48.7565
11
224.117
21
-48.272
0
LINE
8
BLACK
6
CONTINUOUS
10
224.117
20
-48.272
11
224.117
21
-47.778
0
LINE
8
BLACK
6
CONTINUOUS
10
224.117
20
-47.778
11
224.214
21
-47.2935
0
LINE
8
BLACK
6
CONTINUOUS
10
224.214
20
-47.2935
11
224.403
21
-46.8371
0
LINE
8
BLACK
6
CONTINUOUS
10
224.403
20
-46.8371
11
224.677
21
-46.4263
0
LINE
8
BLACK
6
CONTINUOUS
10
224.677
20
-46.4263
11
225.026
21
-46.077
0
LINE
8
BLACK
6
CONTINUOUS
10
225.026
20
-46.077
11
225.437
21
-45.8026
0
LINE
8
BLACK
6
CONTINUOUS
10
225.437
20
-45.8026
11
225.893
21
-45.6135
0
LINE
8
BLACK
6
CONTINUOUS
10
225.893
20
-45.6135
11
226.378
21
-45.5171
0
LINE
8
BLACK
6
CONTINUOUS
10
226.378
20
-45.5171
11
226.872
21
-45.5171
0
LINE
8
BLACK
6
CONTINUOUS
10
226.872
20
-45.5171
11
227.357
21
-45.6135
0
LINE
8
BLACK
6
CONTINUOUS
10
162.431
20
-40.4916
11
163.068
21
-40.7556
0
LINE
8
BLACK
6
CONTINUOUS
10
163.068
20
-40.7556
11
163.642
21
-41.139
0
LINE
8
BLACK
6
CONTINUOUS
10
163.642
20
-41.139
11
164.13
21
-41.6269
0
LINE
8
BLACK
6
CONTINUOUS
10
164.13
20
-41.6269
11
164.513
21
-42.2007
0
LINE
8
BLACK
6
CONTINUOUS
10
164.513
20
-42.2007
11
164.777
21
-42.8382
0
LINE
8
BLACK
6
CONTINUOUS
10
164.777
20
-42.8382
11
164.912
21
-43.515
0
LINE
8
BLACK
6
CONTINUOUS
10
164.912
20
-43.515
11
164.912
21
-44.205
0
LINE
8
BLACK
6
CONTINUOUS
10
164.912
20
-44.205
11
164.777
21
-44.8818
0
LINE
8
BLACK
6
CONTINUOUS
10
164.777
20
-44.8818
11
164.513
21
-45.5193
0
LINE
8
BLACK
6
CONTINUOUS
10
164.513
20
-45.5193
11
164.13
21
-46.0931
0
LINE
8
BLACK
6
CONTINUOUS
10
164.13
20
-46.0931
11
163.642
21
-46.581
0
LINE
8
BLACK
6
CONTINUOUS
10
163.642
20
-46.581
11
163.068
21
-46.9644
0
LINE
8
BLACK
6
CONTINUOUS
10
163.068
20
-46.9644
11
162.431
21
-47.2284
0
LINE
8
BLACK
6
CONTINUOUS
10
162.431
20
-47.2284
11
161.754
21
-47.363
0
LINE
8
BLACK
6
CONTINUOUS
10
161.754
20
-47.363
11
161.064
21
-47.363
0
LINE
8
BLACK
6
CONTINUOUS
10
161.064
20
-47.363
11
160.387
21
-47.2284
0
LINE
8
BLACK
6
CONTINUOUS
10
160.387
20
-47.2284
11
159.75
21
-46.9644
0
LINE
8
BLACK
6
CONTINUOUS
10
159.75
20
-46.9644
11
159.176
21
-46.581
0
LINE
8
BLACK
6
CONTINUOUS
10
159.176
20
-46.581
11
158.688
21
-46.0931
0
LINE
8
BLACK
6
CONTINUOUS
10
158.688
20
-46.0931
11
158.305
21
-45.5193
0
LINE
8
BLACK
6
CONTINUOUS
10
158.305
20
-45.5193
11
158.041
21
-44.8818
0
LINE
8
BLACK
6
CONTINUOUS
10
158.041
20
-44.8818
11
157.906
21
-44.205
0
LINE
8
BLACK
6
CONTINUOUS
10
157.906
20
-44.205
11
157.906
21
-43.515
0
LINE
8
BLACK
6
CONTINUOUS
10
157.906
20
-43.515
11
158.041
21
-42.8382
0
LINE
8
BLACK
6
CONTINUOUS
10
158.041
20
-42.8382
11
158.305
21
-42.2007
0
LINE
8
BLACK
6
CONTINUOUS
10
158.305
20
-42.2007
11
158.688
21
-41.6269
0
LINE
8
BLACK
6
CONTINUOUS
10
158.688
20
-41.6269
11
159.176
21
-41.139
0
LINE
8
BLACK
6
CONTINUOUS
10
159.176
20
-41.139
11
159.75
21
-40.7556
0
LINE
8
BLACK
6
CONTINUOUS
10
159.75
20
-40.7556
11
160.387
21
-40.4916
0
LINE
8
BLACK
6
CONTINUOUS
10
160.387
20
-40.4916
11
161.064
21
-40.3569
0
LINE
8
BLACK
6
CONTINUOUS
10
161.064
20
-40.3569
11
161.754
21
-40.3569
0
LINE
8
BLACK
6
CONTINUOUS
10
161.754
20
-40.3569
11
162.431
21
-40.4916
0
LINE
8
BLACK
6
CONTINUOUS
10
172.832
20
-40.8385
11
173.288
21
-41.0275
0
LINE
8
BLACK
6
CONTINUOUS
10
173.288
20
-41.0275
11
173.699
21
-41.302
0
LINE
8
BLACK
6
CONTINUOUS
10
173.699
20
-41.302
11
174.048
21
-41.6513
0
LINE
8
BLACK
6
CONTINUOUS
10
174.048
20
-41.6513
11
174.322
21
-42.0621
0
LINE
8
BLACK
6
CONTINUOUS
10
174.322
20
-42.0621
11
174.511
21
-42.5185
0
LINE
8
BLACK
6
CONTINUOUS
10
174.511
20
-42.5185
11
174.608
21
-43.003
0
LINE
8
BLACK
6
CONTINUOUS
10
174.608
20
-43.003
11
174.608
21
-43.497
0
LINE
8
BLACK
6
CONTINUOUS
10
174.608
20
-43.497
11
174.511
21
-43.9815
0
LINE
8
BLACK
6
CONTINUOUS
10
174.511
20
-43.9815
11
174.322
21
-44.4379
0
LINE
8
BLACK
6
CONTINUOUS
10
174.322
20
-44.4379
11
174.048
21
-44.8487
0
LINE
8
BLACK
6
CONTINUOUS
10
174.048
20
-44.8487
11
173.699
21
-45.198
0
LINE
8
BLACK
6
CONTINUOUS
10
173.699
20
-45.198
11
173.288
21
-45.4724
0
LINE
8
BLACK
6
CONTINUOUS
10
173.288
20
-45.4724
11
172.832
21
-45.6615
0
LINE
8
BLACK
6
CONTINUOUS
10
172.832
20
-45.6615
11
172.347
21
-45.7579
0
LINE
8
BLACK
6
CONTINUOUS
10
172.347
20
-45.7579
11
171.853
21
-45.7579
0
LINE
8
BLACK
6
CONTINUOUS
10
171.853
20
-45.7579
11
171.368
21
-45.6615
0
LINE
8
BLACK
6
CONTINUOUS
10
171.368
20
-45.6615
11
170.912
21
-45.4724
0
LINE
8
BLACK
6
CONTINUOUS
10
170.912
20
-45.4724
11
170.501
21
-45.198
0
LINE
8
BLACK
6
CONTINUOUS
10
170.501
20
-45.198
11
170.152
21
-44.8487
0
LINE
8
BLACK
6
CONTINUOUS
10
170.152
20
-44.8487
11
169.878
21
-44.4379
0
LINE
8
BLACK
6
CONTINUOUS
10
169.878
20
-44.4379
11
169.689
21
-43.9815
0
LINE
8
BLACK
6
CONTINUOUS
10
169.689
20
-43.9815
11
169.592
21
-43.497
0
LINE
8
BLACK
6
CONTINUOUS
10
169.592
20
-43.497
11
169.592
21
-43.003
0
LINE
8
BLACK
6
CONTINUOUS
10
169.592
20
-43.003
11
169.689
21
-42.5185
0
LINE
8
BLACK
6
CONTINUOUS
10
169.689
20
-42.5185
11
169.878
21
-42.0621
0
LINE
8
BLACK
6
CONTINUOUS
10
169.878
20
-42.0621
11
170.152
21
-41.6513
0
LINE
8
BLACK
6
CONTINUOUS
10
170.152
20
-41.6513
11
170.501
21
-41.302
0
LINE
8
BLACK
6
CONTINUOUS
10
170.501
20
-41.302
11
170.912
21
-41.0275
0
LINE
8
BLACK
6
CONTINUOUS
10
170.912
20
-41.0275
11
171.368
21
-40.8385
0
LINE
8
BLACK
6
CONTINUOUS
10
171.368
20
-40.8385
11
171.853
21
-40.7421
0
LINE
8
BLACK
6
CONTINUOUS
10
171.853
20
-40.7421
11
172.347
21
-40.7421
0
LINE
8
BLACK
6
CONTINUOUS
10
172.347
20
-40.7421
11
172.832
21
-40.8385
  0
ENDSEC
  0
EOF
