  0
SECTION
  2
HEADER
  9
$ANGBASE
  50
0.0
  9
$ANGDIR
  70
1
  9
$MEASUREMENT
  70
1
  0
ENDSEC
  0
SECTION
  2
TABLES
  0
TABLE
  2
LTYPE
  70
4
  0
LTYPE
  5
40F
  2
CONTINUOUS
  70
0
  3
Solid line
  72
65
  73
0
  40
0.0
  0
LTYPE
  5
410
  2
DASHDOT
 70
0
  3
Dash Dot ____ _ ____ _
 72
65
 73
4
 40
2.0
 49
1.25
 49
-0.25
 49
0.25
 49
-0.25
  0
LTYPE
  5
411
  2
DASHED
 70
0
  3
Dashed __ __ __ __ __
 72
65
 73
2
 40
0.75
 49
0.5
 49
-0.25
  0
LTYPE
  5
43B
  2
DOTTED
 70
0
  3
Dotted .  .  .  .
 72
65
 73
2
 40
0.2
 49
0.0
 49
-0.2
  0
ENDTAB
  0
TABLE
  2
STYLE
  70
4
  0
STYLE
  2
KICAD
  70
0
  40
0
  41
1
  42
1
  50
0
  71
0
  3
isocp.shx
  0
STYLE
  2
KICADB
  70
0
  40
0
  41
1
  42
1
  50
0
  71
0
  3
isocp.shx
  0
STYLE
  2
KICADI
  70
0
  40
0
  41
1
  42
1
  50
15
  71
0
  3
isocp.shx
  0
STYLE
  2
KICADBI
  70
0
  40
0
  41
1
  42
1
  50
15
  71
0
  3
isocp.shx
  0
ENDTAB
  0
TABLE
  2
LAYER
  70
1
  0
LAYER
  2
BLACK
  70
0
  62
7
  6
CONTINUOUS
  0
ENDTAB
  0
ENDSEC
  0
SECTION
  2
ENTITIES
0
LINE
8
BLACK
6
CONTINUOUS
10
78.4469
20
-136.759
11
78.7221
21
-136.823
0
LINE
8
BLACK
6
CONTINUOUS
10
78.7221
20
-136.823
11
78.9856
21
-136.925
0
LINE
8
BLACK
6
CONTINUOUS
10
78.9856
20
-136.925
11
79.232
21
-137.063
0
LINE
8
BLACK
6
CONTINUOUS
10
79.232
20
-137.063
11
79.4566
21
-137.234
0
LINE
8
BLACK
6
CONTINUOUS
10
79.4566
20
-137.234
11
79.6548
21
-137.436
0
LINE
8
BLACK
6
CONTINUOUS
10
79.6548
20
-137.436
11
79.8227
21
-137.663
0
LINE
8
BLACK
6
CONTINUOUS
10
79.8227
20
-137.663
11
79.9568
21
-137.912
0
LINE
8
BLACK
6
CONTINUOUS
10
79.9568
20
-137.912
11
80.0546
21
-138.177
0
LINE
8
BLACK
6
CONTINUOUS
10
80.0546
20
-138.177
11
80.114
21
-138.453
0
LINE
8
BLACK
6
CONTINUOUS
10
80.114
20
-138.453
11
80.134
21
-138.735
0
LINE
8
BLACK
6
CONTINUOUS
10
80.134
20
-138.735
11
80.1301
21
-138.86
0
LINE
8
BLACK
6
CONTINUOUS
10
80.1301
20
-138.86
11
80.0924
21
-139.14
0
LINE
8
BLACK
6
CONTINUOUS
10
80.0924
20
-139.14
11
80.0158
21
-139.412
0
LINE
8
BLACK
6
CONTINUOUS
10
80.0158
20
-139.412
11
79.9015
21
-139.671
0
LINE
8
BLACK
6
CONTINUOUS
10
79.9015
20
-139.671
11
79.752
21
-139.91
0
LINE
8
BLACK
6
CONTINUOUS
10
79.752
20
-139.91
11
79.5703
21
-140.127
0
LINE
8
BLACK
6
CONTINUOUS
10
79.5703
20
-140.127
11
79.3598
21
-140.315
0
LINE
8
BLACK
6
CONTINUOUS
10
79.3598
20
-140.315
11
79.1249
21
-140.472
0
LINE
8
BLACK
6
CONTINUOUS
10
79.1249
20
-140.472
11
78.8702
21
-140.594
0
LINE
8
BLACK
6
CONTINUOUS
10
78.8702
20
-140.594
11
78.6009
21
-140.679
0
LINE
8
BLACK
6
CONTINUOUS
10
78.6009
20
-140.679
11
78.3222
21
-140.726
0
LINE
8
BLACK
6
CONTINUOUS
10
78.3222
20
-140.726
11
78.0398
21
-140.732
0
LINE
8
BLACK
6
CONTINUOUS
10
78.0398
20
-140.732
11
77.7592
21
-140.699
0
LINE
8
BLACK
6
CONTINUOUS
10
77.7592
20
-140.699
11
77.4862
21
-140.627
0
LINE
8
BLACK
6
CONTINUOUS
10
77.4862
20
-140.627
11
77.226
21
-140.517
0
LINE
8
BLACK
6
CONTINUOUS
10
77.226
20
-140.517
11
76.984
21
-140.371
0
LINE
8
BLACK
6
CONTINUOUS
10
76.984
20
-140.371
11
76.7649
21
-140.193
0
LINE
8
BLACK
6
CONTINUOUS
10
76.7649
20
-140.193
11
76.5731
21
-139.985
0
LINE
8
BLACK
6
CONTINUOUS
10
76.5731
20
-139.985
11
76.4125
21
-139.753
0
LINE
8
BLACK
6
CONTINUOUS
10
76.4125
20
-139.753
11
76.2862
21
-139.5
0
LINE
8
BLACK
6
CONTINUOUS
10
76.2862
20
-139.5
11
76.1968
21
-139.232
0
LINE
8
BLACK
6
CONTINUOUS
10
76.1968
20
-139.232
11
76.1461
21
-138.954
0
LINE
8
BLACK
6
CONTINUOUS
10
76.1461
20
-138.954
11
76.135
21
-138.672
0
LINE
8
BLACK
6
CONTINUOUS
10
76.135
20
-138.672
11
76.1638
21
-138.391
0
LINE
8
BLACK
6
CONTINUOUS
10
76.1638
20
-138.391
11
76.2319
21
-138.117
0
LINE
8
BLACK
6
CONTINUOUS
10
76.2319
20
-138.117
11
76.3379
21
-137.855
0
LINE
8
BLACK
6
CONTINUOUS
10
76.3379
20
-137.855
11
76.4798
21
-137.611
0
LINE
8
BLACK
6
CONTINUOUS
10
76.4798
20
-137.611
11
76.6547
21
-137.389
0
LINE
8
BLACK
6
CONTINUOUS
10
76.6547
20
-137.389
11
76.8592
21
-137.194
0
LINE
8
BLACK
6
CONTINUOUS
10
76.8592
20
-137.194
11
77.089
21
-137.029
0
LINE
8
BLACK
6
CONTINUOUS
10
77.089
20
-137.029
11
77.3397
21
-136.899
0
LINE
8
BLACK
6
CONTINUOUS
10
77.3397
20
-136.899
11
77.6063
21
-136.806
0
LINE
8
BLACK
6
CONTINUOUS
10
77.6063
20
-136.806
11
77.8833
21
-136.75
0
LINE
8
BLACK
6
CONTINUOUS
10
77.8833
20
-136.75
11
78.1654
21
-136.735
0
LINE
8
BLACK
6
CONTINUOUS
10
78.1654
20
-136.735
11
78.4469
21
-136.759
0
LINE
8
BLACK
6
CONTINUOUS
10
208.447
20
-136.759
11
208.722
21
-136.823
0
LINE
8
BLACK
6
CONTINUOUS
10
208.722
20
-136.823
11
208.986
21
-136.925
0
LINE
8
BLACK
6
CONTINUOUS
10
208.986
20
-136.925
11
209.232
21
-137.063
0
LINE
8
BLACK
6
CONTINUOUS
10
209.232
20
-137.063
11
209.457
21
-137.234
0
LINE
8
BLACK
6
CONTINUOUS
10
209.457
20
-137.234
11
209.655
21
-137.436
0
LINE
8
BLACK
6
CONTINUOUS
10
209.655
20
-137.436
11
209.823
21
-137.663
0
LINE
8
BLACK
6
CONTINUOUS
10
209.823
20
-137.663
11
209.957
21
-137.912
0
LINE
8
BLACK
6
CONTINUOUS
10
209.957
20
-137.912
11
210.055
21
-138.177
0
LINE
8
BLACK
6
CONTINUOUS
10
210.055
20
-138.177
11
210.114
21
-138.453
0
LINE
8
BLACK
6
CONTINUOUS
10
210.114
20
-138.453
11
210.134
21
-138.735
0
LINE
8
BLACK
6
CONTINUOUS
10
210.134
20
-138.735
11
210.13
21
-138.86
0
LINE
8
BLACK
6
CONTINUOUS
10
210.13
20
-138.86
11
210.092
21
-139.14
0
LINE
8
BLACK
6
CONTINUOUS
10
210.092
20
-139.14
11
210.016
21
-139.412
0
LINE
8
BLACK
6
CONTINUOUS
10
210.016
20
-139.412
11
209.902
21
-139.671
0
LINE
8
BLACK
6
CONTINUOUS
10
209.902
20
-139.671
11
209.752
21
-139.91
0
LINE
8
BLACK
6
CONTINUOUS
10
209.752
20
-139.91
11
209.57
21
-140.127
0
LINE
8
BLACK
6
CONTINUOUS
10
209.57
20
-140.127
11
209.36
21
-140.315
0
LINE
8
BLACK
6
CONTINUOUS
10
209.36
20
-140.315
11
209.125
21
-140.472
0
LINE
8
BLACK
6
CONTINUOUS
10
209.125
20
-140.472
11
208.87
21
-140.594
0
LINE
8
BLACK
6
CONTINUOUS
10
208.87
20
-140.594
11
208.601
21
-140.679
0
LINE
8
BLACK
6
CONTINUOUS
10
208.601
20
-140.679
11
208.322
21
-140.726
0
LINE
8
BLACK
6
CONTINUOUS
10
208.322
20
-140.726
11
208.04
21
-140.732
0
LINE
8
BLACK
6
CONTINUOUS
10
208.04
20
-140.732
11
207.759
21
-140.699
0
LINE
8
BLACK
6
CONTINUOUS
10
207.759
20
-140.699
11
207.486
21
-140.627
0
LINE
8
BLACK
6
CONTINUOUS
10
207.486
20
-140.627
11
207.226
21
-140.517
0
LINE
8
BLACK
6
CONTINUOUS
10
207.226
20
-140.517
11
206.984
21
-140.371
0
LINE
8
BLACK
6
CONTINUOUS
10
206.984
20
-140.371
11
206.765
21
-140.193
0
LINE
8
BLACK
6
CONTINUOUS
10
206.765
20
-140.193
11
206.573
21
-139.985
0
LINE
8
BLACK
6
CONTINUOUS
10
206.573
20
-139.985
11
206.413
21
-139.753
0
LINE
8
BLACK
6
CONTINUOUS
10
206.413
20
-139.753
11
206.286
21
-139.5
0
LINE
8
BLACK
6
CONTINUOUS
10
206.286
20
-139.5
11
206.197
21
-139.232
0
LINE
8
BLACK
6
CONTINUOUS
10
206.197
20
-139.232
11
206.146
21
-138.954
0
LINE
8
BLACK
6
CONTINUOUS
10
206.146
20
-138.954
11
206.135
21
-138.672
0
LINE
8
BLACK
6
CONTINUOUS
10
206.135
20
-138.672
11
206.164
21
-138.391
0
LINE
8
BLACK
6
CONTINUOUS
10
206.164
20
-138.391
11
206.232
21
-138.117
0
LINE
8
BLACK
6
CONTINUOUS
10
206.232
20
-138.117
11
206.338
21
-137.855
0
LINE
8
BLACK
6
CONTINUOUS
10
206.338
20
-137.855
11
206.48
21
-137.611
0
LINE
8
BLACK
6
CONTINUOUS
10
206.48
20
-137.611
11
206.655
21
-137.389
0
LINE
8
BLACK
6
CONTINUOUS
10
206.655
20
-137.389
11
206.859
21
-137.194
0
LINE
8
BLACK
6
CONTINUOUS
10
206.859
20
-137.194
11
207.089
21
-137.029
0
LINE
8
BLACK
6
CONTINUOUS
10
207.089
20
-137.029
11
207.34
21
-136.899
0
LINE
8
BLACK
6
CONTINUOUS
10
207.34
20
-136.899
11
207.606
21
-136.806
0
LINE
8
BLACK
6
CONTINUOUS
10
207.606
20
-136.806
11
207.883
21
-136.75
0
LINE
8
BLACK
6
CONTINUOUS
10
207.883
20
-136.75
11
208.165
21
-136.735
0
LINE
8
BLACK
6
CONTINUOUS
10
208.165
20
-136.735
11
208.447
21
-136.759
0
LINE
8
BLACK
6
CONTINUOUS
10
129.129
20
-67.4157
11
126.929
21
-67.4157
0
LINE
8
BLACK
6
CONTINUOUS
10
126.929
20
-67.4157
11
126.929
21
-66.8157
0
LINE
8
BLACK
6
CONTINUOUS
10
126.929
20
-66.8157
11
129.129
21
-66.8157
0
LINE
8
BLACK
6
CONTINUOUS
10
129.129
20
-66.8157
11
129.129
21
-67.4157
0
LINE
8
BLACK
6
CONTINUOUS
10
139.009
20
-67.4157
11
136.809
21
-67.4157
0
LINE
8
BLACK
6
CONTINUOUS
10
136.809
20
-67.4157
11
136.809
21
-66.8157
0
LINE
8
BLACK
6
CONTINUOUS
10
136.809
20
-66.8157
11
139.009
21
-66.8157
0
LINE
8
BLACK
6
CONTINUOUS
10
139.009
20
-66.8157
11
139.009
21
-67.4157
0
LINE
8
BLACK
6
CONTINUOUS
10
129.129
20
-66.1457
11
126.929
21
-66.1457
0
LINE
8
BLACK
6
CONTINUOUS
10
126.929
20
-66.1457
11
126.929
21
-65.5457
0
LINE
8
BLACK
6
CONTINUOUS
10
126.929
20
-65.5457
11
129.129
21
-65.5457
0
LINE
8
BLACK
6
CONTINUOUS
10
129.129
20
-65.5457
11
129.129
21
-66.1457
0
LINE
8
BLACK
6
CONTINUOUS
10
139.009
20
-66.1457
11
136.809
21
-66.1457
0
LINE
8
BLACK
6
CONTINUOUS
10
136.809
20
-66.1457
11
136.809
21
-65.5457
0
LINE
8
BLACK
6
CONTINUOUS
10
136.809
20
-65.5457
11
139.009
21
-65.5457
0
LINE
8
BLACK
6
CONTINUOUS
10
139.009
20
-65.5457
11
139.009
21
-66.1457
0
LINE
8
BLACK
6
CONTINUOUS
10
129.129
20
-64.8757
11
126.929
21
-64.8757
0
LINE
8
BLACK
6
CONTINUOUS
10
126.929
20
-64.8757
11
126.929
21
-64.2757
0
LINE
8
BLACK
6
CONTINUOUS
10
126.929
20
-64.2757
11
129.129
21
-64.2757
0
LINE
8
BLACK
6
CONTINUOUS
10
129.129
20
-64.2757
11
129.129
21
-64.8757
0
LINE
8
BLACK
6
CONTINUOUS
10
139.009
20
-64.8757
11
136.809
21
-64.8757
0
LINE
8
BLACK
6
CONTINUOUS
10
136.809
20
-64.8757
11
136.809
21
-64.2757
0
LINE
8
BLACK
6
CONTINUOUS
10
136.809
20
-64.2757
11
139.009
21
-64.2757
0
LINE
8
BLACK
6
CONTINUOUS
10
139.009
20
-64.2757
11
139.009
21
-64.8757
0
LINE
8
BLACK
6
CONTINUOUS
10
129.129
20
-63.6057
11
126.929
21
-63.6057
0
LINE
8
BLACK
6
CONTINUOUS
10
126.929
20
-63.6057
11
126.929
21
-63.0057
0
LINE
8
BLACK
6
CONTINUOUS
10
126.929
20
-63.0057
11
129.129
21
-63.0057
0
LINE
8
BLACK
6
CONTINUOUS
10
129.129
20
-63.0057
11
129.129
21
-63.6057
0
LINE
8
BLACK
6
CONTINUOUS
10
139.009
20
-63.6057
11
136.809
21
-63.6057
0
LINE
8
BLACK
6
CONTINUOUS
10
136.809
20
-63.6057
11
136.809
21
-63.0057
0
LINE
8
BLACK
6
CONTINUOUS
10
136.809
20
-63.0057
11
139.009
21
-63.0057
0
LINE
8
BLACK
6
CONTINUOUS
10
139.009
20
-63.0057
11
139.009
21
-63.6057
0
LINE
8
BLACK
6
CONTINUOUS
10
129.129
20
-62.3357
11
126.929
21
-62.3357
0
LINE
8
BLACK
6
CONTINUOUS
10
126.929
20
-62.3357
11
126.929
21
-61.7357
0
LINE
8
BLACK
6
CONTINUOUS
10
126.929
20
-61.7357
11
129.129
21
-61.7357
0
LINE
8
BLACK
6
CONTINUOUS
10
129.129
20
-61.7357
11
129.129
21
-62.3357
0
LINE
8
BLACK
6
CONTINUOUS
10
139.009
20
-62.3357
11
136.809
21
-62.3357
0
LINE
8
BLACK
6
CONTINUOUS
10
136.809
20
-62.3357
11
136.809
21
-61.7357
0
LINE
8
BLACK
6
CONTINUOUS
10
136.809
20
-61.7357
11
139.009
21
-61.7357
0
LINE
8
BLACK
6
CONTINUOUS
10
139.009
20
-61.7357
11
139.009
21
-62.3357
0
LINE
8
BLACK
6
CONTINUOUS
10
129.129
20
-61.0657
11
126.929
21
-61.0657
0
LINE
8
BLACK
6
CONTINUOUS
10
126.929
20
-61.0657
11
126.929
21
-60.4657
0
LINE
8
BLACK
6
CONTINUOUS
10
126.929
20
-60.4657
11
129.129
21
-60.4657
0
LINE
8
BLACK
6
CONTINUOUS
10
129.129
20
-60.4657
11
129.129
21
-61.0657
0
LINE
8
BLACK
6
CONTINUOUS
10
139.009
20
-61.0657
11
136.809
21
-61.0657
0
LINE
8
BLACK
6
CONTINUOUS
10
136.809
20
-61.0657
11
136.809
21
-60.4657
0
LINE
8
BLACK
6
CONTINUOUS
10
136.809
20
-60.4657
11
139.009
21
-60.4657
0
LINE
8
BLACK
6
CONTINUOUS
10
139.009
20
-60.4657
11
139.009
21
-61.0657
0
LINE
8
BLACK
6
CONTINUOUS
10
78.4469
20
-56.7593
11
78.7221
21
-56.8231
0
LINE
8
BLACK
6
CONTINUOUS
10
78.7221
20
-56.8231
11
78.9856
21
-56.925
0
LINE
8
BLACK
6
CONTINUOUS
10
78.9856
20
-56.925
11
79.232
21
-57.0631
0
LINE
8
BLACK
6
CONTINUOUS
10
79.232
20
-57.0631
11
79.4566
21
-57.2345
0
LINE
8
BLACK
6
CONTINUOUS
10
79.4566
20
-57.2345
11
79.6548
21
-57.4358
0
LINE
8
BLACK
6
CONTINUOUS
10
79.6548
20
-57.4358
11
79.8227
21
-57.663
0
LINE
8
BLACK
6
CONTINUOUS
10
79.8227
20
-57.663
11
79.9568
21
-57.9117
0
LINE
8
BLACK
6
CONTINUOUS
10
79.9568
20
-57.9117
11
80.0546
21
-58.1767
0
LINE
8
BLACK
6
CONTINUOUS
10
80.0546
20
-58.1767
11
80.114
21
-58.4529
0
LINE
8
BLACK
6
CONTINUOUS
10
80.114
20
-58.4529
11
80.134
21
-58.7347
0
LINE
8
BLACK
6
CONTINUOUS
10
80.134
20
-58.7347
11
80.1301
21
-58.8603
0
LINE
8
BLACK
6
CONTINUOUS
10
80.1301
20
-58.8603
11
80.0924
21
-59.1403
0
LINE
8
BLACK
6
CONTINUOUS
10
80.0924
20
-59.1403
11
80.0158
21
-59.4122
0
LINE
8
BLACK
6
CONTINUOUS
10
80.0158
20
-59.4122
11
79.9015
21
-59.6706
0
LINE
8
BLACK
6
CONTINUOUS
10
79.9015
20
-59.6706
11
79.752
21
-59.9103
0
LINE
8
BLACK
6
CONTINUOUS
10
79.752
20
-59.9103
11
79.5703
21
-60.1265
0
LINE
8
BLACK
6
CONTINUOUS
10
79.5703
20
-60.1265
11
79.3598
21
-60.315
0
LINE
8
BLACK
6
CONTINUOUS
10
79.3598
20
-60.315
11
79.1249
21
-60.472
0
LINE
8
BLACK
6
CONTINUOUS
10
79.1249
20
-60.472
11
78.8702
21
-60.5943
0
LINE
8
BLACK
6
CONTINUOUS
10
78.8702
20
-60.5943
11
78.6009
21
-60.6794
0
LINE
8
BLACK
6
CONTINUOUS
10
78.6009
20
-60.6794
11
78.3222
21
-60.7258
0
LINE
8
BLACK
6
CONTINUOUS
10
78.3222
20
-60.7258
11
78.0398
21
-60.7325
0
LINE
8
BLACK
6
CONTINUOUS
10
78.0398
20
-60.7325
11
77.7592
21
-60.6993
0
LINE
8
BLACK
6
CONTINUOUS
10
77.7592
20
-60.6993
11
77.4862
21
-60.6269
0
LINE
8
BLACK
6
CONTINUOUS
10
77.4862
20
-60.6269
11
77.226
21
-60.5167
0
LINE
8
BLACK
6
CONTINUOUS
10
77.226
20
-60.5167
11
76.984
21
-60.371
0
LINE
8
BLACK
6
CONTINUOUS
10
76.984
20
-60.371
11
76.7649
21
-60.1926
0
LINE
8
BLACK
6
CONTINUOUS
10
76.7649
20
-60.1926
11
76.5731
21
-59.9852
0
LINE
8
BLACK
6
CONTINUOUS
10
76.5731
20
-59.9852
11
76.4125
21
-59.7528
0
LINE
8
BLACK
6
CONTINUOUS
10
76.4125
20
-59.7528
11
76.2862
21
-59.5001
0
LINE
8
BLACK
6
CONTINUOUS
10
76.2862
20
-59.5001
11
76.1968
21
-59.2321
0
LINE
8
BLACK
6
CONTINUOUS
10
76.1968
20
-59.2321
11
76.1461
21
-58.9542
0
LINE
8
BLACK
6
CONTINUOUS
10
76.1461
20
-58.9542
11
76.135
21
-58.6719
0
LINE
8
BLACK
6
CONTINUOUS
10
76.135
20
-58.6719
11
76.1638
21
-58.3908
0
LINE
8
BLACK
6
CONTINUOUS
10
76.1638
20
-58.3908
11
76.2319
21
-58.1167
0
LINE
8
BLACK
6
CONTINUOUS
10
76.2319
20
-58.1167
11
76.3379
21
-57.8548
0
LINE
8
BLACK
6
CONTINUOUS
10
76.3379
20
-57.8548
11
76.4798
21
-57.6105
0
LINE
8
BLACK
6
CONTINUOUS
10
76.4798
20
-57.6105
11
76.6547
21
-57.3887
0
LINE
8
BLACK
6
CONTINUOUS
10
76.6547
20
-57.3887
11
76.8592
21
-57.1937
0
LINE
8
BLACK
6
CONTINUOUS
10
76.8592
20
-57.1937
11
77.089
21
-57.0294
0
LINE
8
BLACK
6
CONTINUOUS
10
77.089
20
-57.0294
11
77.3397
21
-56.8992
0
LINE
8
BLACK
6
CONTINUOUS
10
77.3397
20
-56.8992
11
77.6063
21
-56.8056
0
LINE
8
BLACK
6
CONTINUOUS
10
77.6063
20
-56.8056
11
77.8833
21
-56.7505
0
LINE
8
BLACK
6
CONTINUOUS
10
77.8833
20
-56.7505
11
78.1654
21
-56.7349
0
LINE
8
BLACK
6
CONTINUOUS
10
78.1654
20
-56.7349
11
78.4469
21
-56.7593
0
LINE
8
BLACK
6
CONTINUOUS
10
208.447
20
-56.7593
11
208.722
21
-56.8231
0
LINE
8
BLACK
6
CONTINUOUS
10
208.722
20
-56.8231
11
208.986
21
-56.925
0
LINE
8
BLACK
6
CONTINUOUS
10
208.986
20
-56.925
11
209.232
21
-57.0631
0
LINE
8
BLACK
6
CONTINUOUS
10
209.232
20
-57.0631
11
209.457
21
-57.2345
0
LINE
8
BLACK
6
CONTINUOUS
10
209.457
20
-57.2345
11
209.655
21
-57.4358
0
LINE
8
BLACK
6
CONTINUOUS
10
209.655
20
-57.4358
11
209.823
21
-57.663
0
LINE
8
BLACK
6
CONTINUOUS
10
209.823
20
-57.663
11
209.957
21
-57.9117
0
LINE
8
BLACK
6
CONTINUOUS
10
209.957
20
-57.9117
11
210.055
21
-58.1767
0
LINE
8
BLACK
6
CONTINUOUS
10
210.055
20
-58.1767
11
210.114
21
-58.4529
0
LINE
8
BLACK
6
CONTINUOUS
10
210.114
20
-58.4529
11
210.134
21
-58.7347
0
LINE
8
BLACK
6
CONTINUOUS
10
210.134
20
-58.7347
11
210.13
21
-58.8603
0
LINE
8
BLACK
6
CONTINUOUS
10
210.13
20
-58.8603
11
210.092
21
-59.1403
0
LINE
8
BLACK
6
CONTINUOUS
10
210.092
20
-59.1403
11
210.016
21
-59.4122
0
LINE
8
BLACK
6
CONTINUOUS
10
210.016
20
-59.4122
11
209.902
21
-59.6706
0
LINE
8
BLACK
6
CONTINUOUS
10
209.902
20
-59.6706
11
209.752
21
-59.9103
0
LINE
8
BLACK
6
CONTINUOUS
10
209.752
20
-59.9103
11
209.57
21
-60.1265
0
LINE
8
BLACK
6
CONTINUOUS
10
209.57
20
-60.1265
11
209.36
21
-60.315
0
LINE
8
BLACK
6
CONTINUOUS
10
209.36
20
-60.315
11
209.125
21
-60.472
0
LINE
8
BLACK
6
CONTINUOUS
10
209.125
20
-60.472
11
208.87
21
-60.5943
0
LINE
8
BLACK
6
CONTINUOUS
10
208.87
20
-60.5943
11
208.601
21
-60.6794
0
LINE
8
BLACK
6
CONTINUOUS
10
208.601
20
-60.6794
11
208.322
21
-60.7258
0
LINE
8
BLACK
6
CONTINUOUS
10
208.322
20
-60.7258
11
208.04
21
-60.7325
0
LINE
8
BLACK
6
CONTINUOUS
10
208.04
20
-60.7325
11
207.759
21
-60.6993
0
LINE
8
BLACK
6
CONTINUOUS
10
207.759
20
-60.6993
11
207.486
21
-60.6269
0
LINE
8
BLACK
6
CONTINUOUS
10
207.486
20
-60.6269
11
207.226
21
-60.5167
0
LINE
8
BLACK
6
CONTINUOUS
10
207.226
20
-60.5167
11
206.984
21
-60.371
0
LINE
8
BLACK
6
CONTINUOUS
10
206.984
20
-60.371
11
206.765
21
-60.1926
0
LINE
8
BLACK
6
CONTINUOUS
10
206.765
20
-60.1926
11
206.573
21
-59.9852
0
LINE
8
BLACK
6
CONTINUOUS
10
206.573
20
-59.9852
11
206.413
21
-59.7528
0
LINE
8
BLACK
6
CONTINUOUS
10
206.413
20
-59.7528
11
206.286
21
-59.5001
0
LINE
8
BLACK
6
CONTINUOUS
10
206.286
20
-59.5001
11
206.197
21
-59.2321
0
LINE
8
BLACK
6
CONTINUOUS
10
206.197
20
-59.2321
11
206.146
21
-58.9542
0
LINE
8
BLACK
6
CONTINUOUS
10
206.146
20
-58.9542
11
206.135
21
-58.6719
0
LINE
8
BLACK
6
CONTINUOUS
10
206.135
20
-58.6719
11
206.164
21
-58.3908
0
LINE
8
BLACK
6
CONTINUOUS
10
206.164
20
-58.3908
11
206.232
21
-58.1167
0
LINE
8
BLACK
6
CONTINUOUS
10
206.232
20
-58.1167
11
206.338
21
-57.8548
0
LINE
8
BLACK
6
CONTINUOUS
10
206.338
20
-57.8548
11
206.48
21
-57.6105
0
LINE
8
BLACK
6
CONTINUOUS
10
206.48
20
-57.6105
11
206.655
21
-57.3887
0
LINE
8
BLACK
6
CONTINUOUS
10
206.655
20
-57.3887
11
206.859
21
-57.1937
0
LINE
8
BLACK
6
CONTINUOUS
10
206.859
20
-57.1937
11
207.089
21
-57.0294
0
LINE
8
BLACK
6
CONTINUOUS
10
207.089
20
-57.0294
11
207.34
21
-56.8992
0
LINE
8
BLACK
6
CONTINUOUS
10
207.34
20
-56.8992
11
207.606
21
-56.8056
0
LINE
8
BLACK
6
CONTINUOUS
10
207.606
20
-56.8056
11
207.883
21
-56.7505
0
LINE
8
BLACK
6
CONTINUOUS
10
207.883
20
-56.7505
11
208.165
21
-56.7349
0
LINE
8
BLACK
6
CONTINUOUS
10
208.165
20
-56.7349
11
208.447
21
-56.7593
0
LINE
8
BLACK
6
CONTINUOUS
10
129.129
20
-59.7957
11
126.929
21
-59.7957
0
LINE
8
BLACK
6
CONTINUOUS
10
126.929
20
-59.7957
11
126.929
21
-59.1957
0
LINE
8
BLACK
6
CONTINUOUS
10
126.929
20
-59.1957
11
129.129
21
-59.1957
0
LINE
8
BLACK
6
CONTINUOUS
10
129.129
20
-59.1957
11
129.129
21
-59.7957
0
LINE
8
BLACK
6
CONTINUOUS
10
139.009
20
-59.7957
11
136.809
21
-59.7957
0
LINE
8
BLACK
6
CONTINUOUS
10
136.809
20
-59.7957
11
136.809
21
-59.1957
0
LINE
8
BLACK
6
CONTINUOUS
10
136.809
20
-59.1957
11
139.009
21
-59.1957
0
LINE
8
BLACK
6
CONTINUOUS
10
139.009
20
-59.1957
11
139.009
21
-59.7957
0
LINE
8
BLACK
6
CONTINUOUS
10
129.129
20
-58.5257
11
126.929
21
-58.5257
0
LINE
8
BLACK
6
CONTINUOUS
10
126.929
20
-58.5257
11
126.929
21
-57.9257
0
LINE
8
BLACK
6
CONTINUOUS
10
126.929
20
-57.9257
11
129.129
21
-57.9257
0
LINE
8
BLACK
6
CONTINUOUS
10
129.129
20
-57.9257
11
129.129
21
-58.5257
0
LINE
8
BLACK
6
CONTINUOUS
10
139.009
20
-58.5257
11
136.809
21
-58.5257
0
LINE
8
BLACK
6
CONTINUOUS
10
136.809
20
-58.5257
11
136.809
21
-57.9257
0
LINE
8
BLACK
6
CONTINUOUS
10
136.809
20
-57.9257
11
139.009
21
-57.9257
0
LINE
8
BLACK
6
CONTINUOUS
10
139.009
20
-57.9257
11
139.009
21
-58.5257
0
LINE
8
BLACK
6
CONTINUOUS
10
129.129
20
-57.2557
11
126.929
21
-57.2557
0
LINE
8
BLACK
6
CONTINUOUS
10
126.929
20
-57.2557
11
126.929
21
-56.6557
0
LINE
8
BLACK
6
CONTINUOUS
10
126.929
20
-56.6557
11
129.129
21
-56.6557
0
LINE
8
BLACK
6
CONTINUOUS
10
129.129
20
-56.6557
11
129.129
21
-57.2557
0
LINE
8
BLACK
6
CONTINUOUS
10
139.009
20
-57.2557
11
136.809
21
-57.2557
0
LINE
8
BLACK
6
CONTINUOUS
10
136.809
20
-57.2557
11
136.809
21
-56.6557
0
LINE
8
BLACK
6
CONTINUOUS
10
136.809
20
-56.6557
11
139.009
21
-56.6557
0
LINE
8
BLACK
6
CONTINUOUS
10
139.009
20
-56.6557
11
139.009
21
-57.2557
0
LINE
8
BLACK
6
CONTINUOUS
10
129.129
20
-55.9857
11
126.929
21
-55.9857
0
LINE
8
BLACK
6
CONTINUOUS
10
126.929
20
-55.9857
11
126.929
21
-55.3857
0
LINE
8
BLACK
6
CONTINUOUS
10
126.929
20
-55.3857
11
129.129
21
-55.3857
0
LINE
8
BLACK
6
CONTINUOUS
10
129.129
20
-55.3857
11
129.129
21
-55.9857
0
LINE
8
BLACK
6
CONTINUOUS
10
139.009
20
-55.9857
11
136.809
21
-55.9857
0
LINE
8
BLACK
6
CONTINUOUS
10
136.809
20
-55.9857
11
136.809
21
-55.3857
0
LINE
8
BLACK
6
CONTINUOUS
10
136.809
20
-55.3857
11
139.009
21
-55.3857
0
LINE
8
BLACK
6
CONTINUOUS
10
139.009
20
-55.3857
11
139.009
21
-55.9857
0
LINE
8
BLACK
6
CONTINUOUS
10
129.129
20
-54.7157
11
126.929
21
-54.7157
0
LINE
8
BLACK
6
CONTINUOUS
10
126.929
20
-54.7157
11
126.929
21
-54.1157
0
LINE
8
BLACK
6
CONTINUOUS
10
126.929
20
-54.1157
11
129.129
21
-54.1157
0
LINE
8
BLACK
6
CONTINUOUS
10
129.129
20
-54.1157
11
129.129
21
-54.7157
0
LINE
8
BLACK
6
CONTINUOUS
10
139.009
20
-54.7157
11
136.809
21
-54.7157
0
LINE
8
BLACK
6
CONTINUOUS
10
136.809
20
-54.7157
11
136.809
21
-54.1157
0
LINE
8
BLACK
6
CONTINUOUS
10
136.809
20
-54.1157
11
139.009
21
-54.1157
0
LINE
8
BLACK
6
CONTINUOUS
10
139.009
20
-54.1157
11
139.009
21
-54.7157
0
LINE
8
BLACK
6
CONTINUOUS
10
129.129
20
-53.4457
11
126.929
21
-53.4457
0
LINE
8
BLACK
6
CONTINUOUS
10
126.929
20
-53.4457
11
126.929
21
-52.8457
0
LINE
8
BLACK
6
CONTINUOUS
10
126.929
20
-52.8457
11
129.129
21
-52.8457
0
LINE
8
BLACK
6
CONTINUOUS
10
129.129
20
-52.8457
11
129.129
21
-53.4457
0
LINE
8
BLACK
6
CONTINUOUS
10
139.009
20
-53.4457
11
136.809
21
-53.4457
0
LINE
8
BLACK
6
CONTINUOUS
10
136.809
20
-53.4457
11
136.809
21
-52.8457
0
LINE
8
BLACK
6
CONTINUOUS
10
136.809
20
-52.8457
11
139.009
21
-52.8457
0
LINE
8
BLACK
6
CONTINUOUS
10
139.009
20
-52.8457
11
139.009
21
-53.4457
0
LINE
8
BLACK
6
CONTINUOUS
10
129.129
20
-52.1757
11
126.929
21
-52.1757
0
LINE
8
BLACK
6
CONTINUOUS
10
126.929
20
-52.1757
11
126.929
21
-51.5757
0
LINE
8
BLACK
6
CONTINUOUS
10
126.929
20
-51.5757
11
129.129
21
-51.5757
0
LINE
8
BLACK
6
CONTINUOUS
10
129.129
20
-51.5757
11
129.129
21
-52.1757
0
LINE
8
BLACK
6
CONTINUOUS
10
139.009
20
-52.1757
11
136.809
21
-52.1757
0
LINE
8
BLACK
6
CONTINUOUS
10
136.809
20
-52.1757
11
136.809
21
-51.5757
0
LINE
8
BLACK
6
CONTINUOUS
10
136.809
20
-51.5757
11
139.009
21
-51.5757
0
LINE
8
BLACK
6
CONTINUOUS
10
139.009
20
-51.5757
11
139.009
21
-52.1757
0
LINE
8
BLACK
6
CONTINUOUS
10
129.129
20
-50.9057
11
126.929
21
-50.9057
0
LINE
8
BLACK
6
CONTINUOUS
10
126.929
20
-50.9057
11
126.929
21
-50.3057
0
LINE
8
BLACK
6
CONTINUOUS
10
126.929
20
-50.3057
11
129.129
21
-50.3057
0
LINE
8
BLACK
6
CONTINUOUS
10
129.129
20
-50.3057
11
129.129
21
-50.9057
0
LINE
8
BLACK
6
CONTINUOUS
10
139.009
20
-50.9057
11
136.809
21
-50.9057
0
LINE
8
BLACK
6
CONTINUOUS
10
136.809
20
-50.9057
11
136.809
21
-50.3057
0
LINE
8
BLACK
6
CONTINUOUS
10
136.809
20
-50.3057
11
139.009
21
-50.3057
0
LINE
8
BLACK
6
CONTINUOUS
10
139.009
20
-50.3057
11
139.009
21
-50.9057
0
LINE
8
BLACK
6
CONTINUOUS
10
227.848
20
-44.5037
11
227.851
21
-44.5031
0
LINE
8
BLACK
6
CONTINUOUS
10
227.851
20
-44.5031
11
227.854
21
-44.5048
0
LINE
8
BLACK
6
CONTINUOUS
10
227.854
20
-44.5048
11
227.864
21
-44.5065
0
LINE
8
BLACK
6
CONTINUOUS
10
227.864
20
-44.5065
11
227.879
21
-44.519
0
LINE
8
BLACK
6
CONTINUOUS
10
227.879
20
-44.519
11
227.895
21
-44.5288
0
LINE
8
BLACK
6
CONTINUOUS
10
227.895
20
-44.5288
11
227.898
21
-44.5351
0
LINE
8
BLACK
6
CONTINUOUS
10
227.898
20
-44.5351
11
227.903
21
-44.5395
0
LINE
8
BLACK
6
CONTINUOUS
10
227.903
20
-44.5395
11
227.906
21
-44.5587
0
LINE
8
BLACK
6
CONTINUOUS
10
227.906
20
-44.5587
11
227.913
21
-44.577
0
LINE
8
BLACK
6
CONTINUOUS
10
227.913
20
-44.577
11
227.913
21
-158.877
0
LINE
8
BLACK
6
CONTINUOUS
10
227.913
20
-158.877
11
227.911
21
-158.887
0
LINE
8
BLACK
6
CONTINUOUS
10
227.911
20
-158.887
11
227.912
21
-158.89
0
LINE
8
BLACK
6
CONTINUOUS
10
227.912
20
-158.89
11
227.91
21
-158.893
0
LINE
8
BLACK
6
CONTINUOUS
10
227.91
20
-158.893
11
227.908
21
-158.903
0
LINE
8
BLACK
6
CONTINUOUS
10
227.908
20
-158.903
11
227.896
21
-158.918
0
LINE
8
BLACK
6
CONTINUOUS
10
227.896
20
-158.918
11
227.886
21
-158.934
0
LINE
8
BLACK
6
CONTINUOUS
10
227.886
20
-158.934
11
227.88
21
-158.937
0
LINE
8
BLACK
6
CONTINUOUS
10
227.88
20
-158.937
11
227.875
21
-158.942
0
LINE
8
BLACK
6
CONTINUOUS
10
227.875
20
-158.942
11
227.856
21
-158.945
0
LINE
8
BLACK
6
CONTINUOUS
10
227.856
20
-158.945
11
227.838
21
-158.952
0
LINE
8
BLACK
6
CONTINUOUS
10
227.838
20
-158.952
11
63.135
21
-158.813
0
LINE
8
BLACK
6
CONTINUOUS
10
63.135
20
-158.813
11
63.1254
21
-158.812
0
LINE
8
BLACK
6
CONTINUOUS
10
63.1254
20
-158.812
11
63.1221
21
-158.812
0
LINE
8
BLACK
6
CONTINUOUS
10
63.1221
20
-158.812
11
63.1192
21
-158.81
0
LINE
8
BLACK
6
CONTINUOUS
10
63.1192
20
-158.81
11
63.1094
21
-158.809
0
LINE
8
BLACK
6
CONTINUOUS
10
63.1094
20
-158.809
11
63.0945
21
-158.796
0
LINE
8
BLACK
6
CONTINUOUS
10
63.0945
20
-158.796
11
63.0776
21
-158.787
0
LINE
8
BLACK
6
CONTINUOUS
10
63.0776
20
-158.787
11
63.0753
21
-158.78
0
LINE
8
BLACK
6
CONTINUOUS
10
63.0753
20
-158.78
11
63.0701
21
-158.776
0
LINE
8
BLACK
6
CONTINUOUS
10
63.0701
20
-158.776
11
63.0668
21
-158.757
0
LINE
8
BLACK
6
CONTINUOUS
10
63.0668
20
-158.757
11
63.0601
21
-158.738
0
LINE
8
BLACK
6
CONTINUOUS
10
63.0601
20
-158.738
11
63.059
21
-44.577
0
LINE
8
BLACK
6
CONTINUOUS
10
63.059
20
-44.577
11
63.0607
21
-44.5673
0
LINE
8
BLACK
6
CONTINUOUS
10
63.0607
20
-44.5673
11
63.0601
21
-44.564
0
LINE
8
BLACK
6
CONTINUOUS
10
63.0601
20
-44.564
11
63.0618
21
-44.5611
0
LINE
8
BLACK
6
CONTINUOUS
10
63.0618
20
-44.5611
11
63.0635
21
-44.5513
0
LINE
8
BLACK
6
CONTINUOUS
10
63.0635
20
-44.5513
11
63.076
21
-44.5364
0
LINE
8
BLACK
6
CONTINUOUS
10
63.076
20
-44.5364
11
63.0858
21
-44.5195
0
LINE
8
BLACK
6
CONTINUOUS
10
63.0858
20
-44.5195
11
63.0921
21
-44.5172
0
LINE
8
BLACK
6
CONTINUOUS
10
63.0921
20
-44.5172
11
63.0965
21
-44.512
0
LINE
8
BLACK
6
CONTINUOUS
10
63.0965
20
-44.512
11
63.1157
21
-44.5087
0
LINE
8
BLACK
6
CONTINUOUS
10
63.1157
20
-44.5087
11
63.134
21
-44.502
0
LINE
8
BLACK
6
CONTINUOUS
10
63.134
20
-44.502
11
227.838
21
-44.502
0
LINE
8
BLACK
6
CONTINUOUS
10
227.838
20
-44.502
11
227.848
21
-44.5037
0
LINE
8
BLACK
6
CONTINUOUS
10
63.209
20
-44.652
11
63.2101
21
-158.663
0
LINE
8
BLACK
6
CONTINUOUS
10
63.2101
20
-158.663
11
227.763
21
-158.802
0
LINE
8
BLACK
6
CONTINUOUS
10
227.763
20
-158.802
11
227.763
21
-44.652
0
LINE
8
BLACK
6
CONTINUOUS
10
227.763
20
-44.652
11
63.209
21
-44.652
  0
ENDSEC
  0
EOF
