999
dxfrw 0.6.3
  0
SECTION
  2
HEADER
  9
$ACADVER
  1
AC1021
  9
$DWGCODEPAGE
  3
ANSI_1252
  9
$INSBASE
 10
0
 20
0
 30
0
  9
$EXTMIN
 10
26.34380745694463
 20
-170.698
 30
0
  9
$EXTMAX
 10
95.8864081878633
 20
-76.845
 30
0
  9
$LIMMIN
 10
0
 20
0
  9
$LIMMAX
 10
12
 20
9
  9
$ORTHOMODE
 70
    0
  9
$REGENMODE
 70
    1
  9
$FILLMODE
 70
    1
  9
$QTEXTMODE
 70
    0
  9
$MIRRTEXT
 70
    0
  9
$LTSCALE
 40
1
  9
$ATTMODE
 70
    1
  9
$TEXTSIZE
 40
0.2
  9
$TRACEWID
 40
0.05
  9
$TEXTSTYLE
  7
Standard
  9
$CLAYER
  8
0
  9
$CELTYPE
  6
ByLayer
  9
$CECOLOR
 62
  256
  9
$CELTSCALE
 40
1
  9
$DISPSILH
 70
    0
  9
$DIMSCALE
 40
1
  9
$DIMASZ
 40
1.8
  9
$DIMEXO
 40
0.0625
  9
$DIMDLI
 40
0.38
  9
$DIMRND
 40
0
  9
$DIMDLE
 40
0
  9
$DIMEXE
 40
0.18
  9
$DIMTP
 40
0
  9
$DIMTM
 40
0
  9
$DIMTXT
 40
1.8
  9
$DIMCEN
 40
0.09
  9
$DIMTSZ
 40
0
  9
$DIMTOL
 70
    0
  9
$DIMLIM
 70
    0
  9
$DIMTIH
 70
    1
  9
$DIMTOH
 70
    1
  9
$DIMSE1
 70
    0
  9
$DIMSE2
 70
    0
  9
$DIMTAD
 70
    0
  9
$DIMZIN
 70
    0
  9
$DIMBLK
  1

  9
$DIMASO
 70
    1
  9
$DIMSHO
 70
    1
  9
$DIMPOST
  1

  9
$DIMAPOST
  1

  9
$DIMALT
 70
    0
  9
$DIMALTD
 70
    2
  9
$DIMALTF
 40
25.4
  9
$DIMLFAC
 40
1
  9
$DIMTOFL
 70
    0
  9
$DIMTVP
 40
0
  9
$DIMTIX
 70
    0
  9
$DIMSOXD
 70
    0
  9
$DIMSAH
 70
    0
  9
$DIMBLK1
  1

  9
$DIMBLK2
  1

  9
$DIMSTYLE
  2
Standard
  9
$DIMCLRD
 70
   18
  9
$DIMCLRE
 70
   18
  9
$DIMCLRT
 70
   18
  9
$DIMTFAC
 40
1
  9
$DIMGAP
 40
0.09
  9
$DIMJUST
 70
    0
  9
$DIMSD1
 70
    0
  9
$DIMSD2
 70
    0
  9
$DIMTOLJ
 70
    1
  9
$DIMTZIN
 70
    0
  9
$DIMALTZ
 70
    0
  9
$DIMALTTZ
 70
    0
  9
$DIMUPT
 70
    0
  9
$DIMDEC
 70
    4
  9
$DIMTDEC
 70
    4
  9
$DIMALTU
 70
    2
  9
$DIMALTTD
 70
    2
  9
$DIMTXSTY
  7
Standard
  9
$DIMAUNIT
 70
    0
  9
$DIMADEC
 70
    0
  9
$DIMALTRND
 40
0
  9
$DIMAZIN
 70
    0
  9
$DIMDSEP
 70
   46
  9
$DIMATFIT
 70
    3
  9
$DIMFRAC
 70
    0
  9
$DIMLDRBLK
  1

  9
$DIMLUNIT
 70
    2
  9
$DIMLWD
 70
   -2
  9
$DIMLWE
 70
   -2
  9
$DIMTMOVE
 70
    0
  9
$DIMFXL
 40
1
  9
$DIMFXLON
 70
    0
  9
$DIMJOGANG
 40
0.7853981633974483
  9
$DIMTFILL
 70
    0
  9
$DIMTFILLCLR
 70
    0
  9
$DIMARCSYM
 70
    0
  9
$DIMLTYPE
  6

  9
$DIMLTEX1
  6

  9
$DIMLTEX2
  6

  9
$LUNITS
 70
    2
  9
$LUPREC
 70
    4
  9
$SKETCHINC
 40
0.1
  9
$FILLETRAD
 40
0
  9
$AUNITS
 70
    0
  9
$AUPREC
 70
    0
  9
$MENU
  1
.
  9
$ELEVATION
 40
0
  9
$PELEVATION
 40
0
  9
$THICKNESS
 40
0
  9
$LIMCHECK
 70
    0
  9
$CHAMFERA
 40
0
  9
$CHAMFERB
 40
0
  9
$CHAMFERC
 40
0
  9
$CHAMFERD
 40
0
  9
$SKPOLY
 70
    0
  9
$USRTIMER
 70
    1
  9
$ANGBASE
 50
0
  9
$ANGDIR
 70
    0
  9
$PDMODE
 70
    0
  9
$PDSIZE
 40
0
  9
$PLINEWID
 40
0
  9
$SPLFRAME
 70
    0
  9
$SPLINETYPE
 70
    6
  9
$SPLINESEGS
 70
    8
  9
$HANDSEED
  5
20000
  9
$SURFTAB1
 70
    6
  9
$SURFTAB2
 70
    6
  9
$SURFTYPE
 70
    6
  9
$SURFU
 70
    6
  9
$SURFV
 70
    6
  9
$UCSBASE
  2

  9
$UCSNAME
  2

  9
$UCSORG
 10
0
 20
0
 30
0
  9
$UCSXDIR
 10
1
 20
0
 30
0
  9
$UCSYDIR
 10
0
 20
1
 30
0
  9
$UCSORTHOREF
  2

  9
$UCSORTHOVIEW
 70
    0
  9
$UCSORGTOP
 10
0
 20
0
 30
0
  9
$UCSORGBOTTOM
 10
0
 20
0
 30
0
  9
$UCSORGLEFT
 10
0
 20
0
 30
0
  9
$UCSORGRIGHT
 10
0
 20
0
 30
0
  9
$UCSORGFRONT
 10
0
 20
0
 30
0
  9
$UCSORGBACK
 10
0
 20
0
 30
0
  9
$PUCSBASE
  2

  9
$PUCSNAME
  2

  9
$PUCSORG
 10
0
 20
0
 30
0
  9
$PUCSXDIR
 10
1
 20
0
 30
0
  9
$PUCSYDIR
 10
0
 20
1
 30
0
  9
$PUCSORTHOREF
  2

  9
$PUCSORTHOVIEW
 70
    0
  9
$PUCSORGTOP
 10
0
 20
0
 30
0
  9
$PUCSORGBOTTOM
 10
0
 20
0
 30
0
  9
$PUCSORGLEFT
 10
0
 20
0
 30
0
  9
$PUCSORGRIGHT
 10
0
 20
0
 30
0
  9
$PUCSORGFRONT
 10
0
 20
0
 30
0
  9
$PUCSORGBACK
 10
0
 20
0
 30
0
  9
$USERI1
 70
    0
  9
$USERI2
 70
    0
  9
$USERI3
 70
    0
  9
$USERI4
 70
    0
  9
$USERI5
 70
    0
  9
$USERR1
 40
0
  9
$USERR2
 40
0
  9
$USERR3
 40
0
  9
$USERR4
 40
0
  9
$USERR5
 40
0
  9
$WORLDVIEW
 70
    1
  9
$SHADEDGE
 70
    3
  9
$SHADEDIF
 70
   70
  9
$TILEMODE
 70
    1
  9
$MAXACTVP
 70
   64
  9
$PINSBASE
 10
0
 20
0
 30
0
  9
$PLIMCHECK
 70
    0
  9
$PEXTMIN
 10
0
 20
0
 30
0
  9
$PEXTMAX
 10
0
 20
0
 30
0
  9
$GRIDMODE
 70
    0
  9
$SNAPSTYLE
 70
    0
  9
$PLIMMIN
 10
-20
 20
-7.5
  9
$PLIMMAX
 10
277
 20
202.5
  9
$UNITMODE
 70
    0
  9
$VISRETAIN
 70
    1
  9
$PLINEGEN
 70
    0
  9
$PSLTSCALE
 70
    1
  9
$TREEDEPTH
 70
 3020
  9
$CMLSTYLE
  2
Standard
  9
$CMLJUST
 70
    0
  9
$CMLSCALE
 40
1
  9
$PROXYGRAPHICS
 70
    1
  9
$MEASUREMENT
 70
    1
  9
$CELWEIGHT
370
   -1
  9
$ENDCAPS
280
    0
  9
$JOINSTYLE
280
    0
  9
$LWDISPLAY
290
    0
  9
$INSUNITS
 70
    4
  9
$HYPERLINKBASE
  1

  9
$STYLESHEET
  1

  9
$XEDIT
290
    1
  9
$CEPSNTYPE
380
    0
  9
$PSTYLEMODE
290
    1
  9
$EXTNAMES
290
    1
  9
$PSVPSCALE
 40
0
  9
$OLESTARTUP
290
    0
  9
$SORTENTS
280
  127
  9
$INDEXCTL
280
    0
  9
$HIDETEXT
280
    1
  9
$XCLIPFRAME
290
    2
  9
$HALOGAP
280
    0
  9
$OBSCOLOR
 70
  257
  9
$OBSLTYPE
280
    0
  9
$INTERSECTIONDISPLAY
280
    0
  9
$INTERSECTIONCOLOR
 70
  257
  9
$DIMASSOC
280
    2
  9
$PROJECTNAME
  1

  9
$CAMERADISPLAY
290
    0
  9
$LENSLENGTH
 40
50
  9
$CAMERAHEIGHT
 40
0
  9
$STEPSPERSEC
 40
2
  9
$STEPSIZE
 40
6
  9
$3DDWFPREC
 40
2
  9
$PSOLWIDTH
 40
0.25
  9
$PSOLHEIGHT
 40
4
  9
$LOFTANG1
 40
1.570796326794897
  9
$LOFTANG2
 40
1.570796326794897
  9
$LOFTMAG1
 40
0
  9
$LOFTMAG2
 40
0
  9
$LOFTPARAM
 70
    7
  9
$LOFTNORMALS
280
    1
  9
$LATITUDE
 40
37.795
  9
$LONGITUDE
 40
-122.394
  9
$NORTHDIRECTION
 40
0
  9
$TIMEZONE
 70
-8000
  9
$LIGHTGLYPHDISPLAY
280
    1
  9
$TILEMODELIGHTSYNCH
280
    1
  9
$SOLIDHIST
280
    0
  9
$SHOWHIST
280
    1
  9
$DWFFRAME
280
    2
  9
$DGNFRAME
280
    2
  9
$REALWORLDSCALE
290
    1
  9
$INTERFERECOLOR
 62
  256
  9
$CSHADOW
280
    0
  9
$SHADOWPLANELOCATION
 40
0
  0
ENDSEC
  0
SECTION
  2
CLASSES
  0
ENDSEC
  0
SECTION
  2
TABLES
  0
TABLE
  2
VPORT
  5
8
330
0
100
AcDbSymbolTable
 70
    1
  0
VPORT
  5
31
330
2
100
AcDbSymbolTableRecord
100
AcDbViewportTableRecord
  2
*ACTIVE
 70
    0
 10
0
 20
0
 11
1
 21
1
 12
101.0775027414129
 22
-21.47465715239917
 13
0
 23
0
 14
10
 24
10
 15
10
 25
10
 16
0
 26
0
 36
1
 17
0
 27
0
 37
0
 40
166.9676154499791
 41
1.65495867768595
 42
50
 43
0
 44
0
 50
0
 51
0
 71
    0
 72
  100
 73
    1
 74
    3
 75
    0
 76
    0
 77
    0
 78
    0
281
    0
 65
    1
110
0
120
0
130
0
111
1
121
0
131
0
112
0
122
1
132
0
 79
    0
146
0
348
10020
 60
    7
 61
    5
292
1
282
    1
141
0
142
0
 63
  250
421
3358443
  0
ENDTAB
  0
TABLE
  2
LTYPE
  5
5
330
0
100
AcDbSymbolTable
 70
    4
  0
LTYPE
  5
14
330
5
100
AcDbSymbolTableRecord
100
AcDbLinetypeTableRecord
  2
ByBlock
 70
    0
  3

 72
   65
 73
    0
 40
0
  0
LTYPE
  5
15
330
5
100
AcDbSymbolTableRecord
100
AcDbLinetypeTableRecord
  2
ByLayer
 70
    0
  3

 72
   65
 73
    0
 40
0
  0
LTYPE
  5
16
330
5
100
AcDbSymbolTableRecord
100
AcDbLinetypeTableRecord
  2
Continuous
 70
    0
  3
Solid line
 72
   65
 73
    0
 40
0
  0
LTYPE
  5
32
330
5
100
AcDbSymbolTableRecord
100
AcDbLinetypeTableRecord
  2
DOT
 70
    0
  3
Dot . . . . . . . . . . . . . . . . . . . . . .
 72
   65
 73
    2
 40
6.35
 49
0
 74
    0
 49
-6.35
 74
    0
  0
LTYPE
  5
33
330
5
100
AcDbSymbolTableRecord
100
AcDbLinetypeTableRecord
  2
DOTTINY
 70
    0
  3
Dot (.15x) .....................................
 72
   65
 73
    2
 40
0.9525
 49
0
 74
    0
 49
-0.9525
 74
    0
  0
LTYPE
  5
34
330
5
100
AcDbSymbolTableRecord
100
AcDbLinetypeTableRecord
  2
DOT2
 70
    0
  3
Dot (.5x) .....................................
 72
   65
 73
    2
 40
3.175
 49
0
 74
    0
 49
-3.175
 74
    0
  0
LTYPE
  5
35
330
5
100
AcDbSymbolTableRecord
100
AcDbLinetypeTableRecord
  2
DOTX2
 70
    0
  3
Dot (2x) .  .  .  .  .  .  .  .  .  .  .  .  .
 72
   65
 73
    2
 40
12.7
 49
0
 74
    0
 49
-12.7
 74
    0
  0
LTYPE
  5
36
330
5
100
AcDbSymbolTableRecord
100
AcDbLinetypeTableRecord
  2
DASHED
 70
    0
  3
Dashed _ _ _ _ _ _ _ _ _ _ _ _ _ _ _ _ _
 72
   65
 73
    2
 40
19.05
 49
12.7
 74
    0
 49
-6.35
 74
    0
  0
LTYPE
  5
37
330
5
100
AcDbSymbolTableRecord
100
AcDbLinetypeTableRecord
  2
DASHEDTINY
 70
    0
  3
Dashed (.15x) _ _ _ _ _ _ _ _ _ _ _ _ _ _ _ _ _
 72
   65
 73
    2
 40
2.8575
 49
1.905
 74
    0
 49
-0.9525
 74
    0
  0
LTYPE
  5
38
330
5
100
AcDbSymbolTableRecord
100
AcDbLinetypeTableRecord
  2
DASHED2
 70
    0
  3
Dashed (.5x) _ _ _ _ _ _ _ _ _ _ _ _ _ _ _ _ _
 72
   65
 73
    2
 40
9.524999999999999
 49
6.35
 74
    0
 49
-3.175
 74
    0
  0
LTYPE
  5
39
330
5
100
AcDbSymbolTableRecord
100
AcDbLinetypeTableRecord
  2
DASHEDX2
 70
    0
  3
Dashed (2x) ____  ____  ____  ____  ____  ___
 72
   65
 73
    2
 40
38.09999999999999
 49
25.4
 74
    0
 49
-12.7
 74
    0
  0
LTYPE
  5
3A
330
5
100
AcDbSymbolTableRecord
100
AcDbLinetypeTableRecord
  2
DASHDOT
 70
    0
  3
Dash dot __ . __ . __ . __ . __ . __ . __ . __
 72
   65
 73
    4
 40
25.4
 49
12.7
 74
    0
 49
-6.35
 74
    0
 49
0
 74
    0
 49
-6.35
 74
    0
  0
LTYPE
  5
3B
330
5
100
AcDbSymbolTableRecord
100
AcDbLinetypeTableRecord
  2
DASHDOTTINY
 70
    0
  3
Dash dot (.15x) _._._._._._._._._._._._._._._.
 72
   65
 73
    4
 40
3.81
 49
1.905
 74
    0
 49
-0.9525
 74
    0
 49
0
 74
    0
 49
-0.9525
 74
    0
  0
LTYPE
  5
3C
330
5
100
AcDbSymbolTableRecord
100
AcDbLinetypeTableRecord
  2
DASHDOT2
 70
    0
  3
Dash dot (.5x) _._._._._._._._._._._._._._._.
 72
   65
 73
    4
 40
12.7
 49
6.35
 74
    0
 49
-3.175
 74
    0
 49
0
 74
    0
 49
-3.175
 74
    0
  0
LTYPE
  5
3D
330
5
100
AcDbSymbolTableRecord
100
AcDbLinetypeTableRecord
  2
DASHDOTX2
 70
    0
  3
Dash dot (2x) ____  .  ____  .  ____  .  ___
 72
   65
 73
    4
 40
50.8
 49
25.4
 74
    0
 49
-12.7
 74
    0
 49
0
 74
    0
 49
-12.7
 74
    0
  0
LTYPE
  5
3E
330
5
100
AcDbSymbolTableRecord
100
AcDbLinetypeTableRecord
  2
DIVIDE
 70
    0
  3
Divide ____ . . ____ . . ____ . . ____ . . ____
 72
   65
 73
    6
 40
31.75
 49
12.7
 74
    0
 49
-6.35
 74
    0
 49
0
 74
    0
 49
-6.35
 74
    0
 49
0
 74
    0
 49
-6.35
 74
    0
  0
LTYPE
  5
3F
330
5
100
AcDbSymbolTableRecord
100
AcDbLinetypeTableRecord
  2
DIVIDETINY
 70
    0
  3
Divide (.15x) __..__..__..__..__..__..__..__.._
 72
   65
 73
    6
 40
4.7625
 49
1.905
 74
    0
 49
-0.9525
 74
    0
 49
0
 74
    0
 49
-0.9525
 74
    0
 49
0
 74
    0
 49
-0.9525
 74
    0
  0
LTYPE
  5
40
330
5
100
AcDbSymbolTableRecord
100
AcDbLinetypeTableRecord
  2
DIVIDE2
 70
    0
  3
Divide (.5x) __..__..__..__..__..__..__..__.._
 72
   65
 73
    6
 40
15.875
 49
6.35
 74
    0
 49
-3.175
 74
    0
 49
0
 74
    0
 49
-3.175
 74
    0
 49
0
 74
    0
 49
-3.175
 74
    0
  0
LTYPE
  5
41
330
5
100
AcDbSymbolTableRecord
100
AcDbLinetypeTableRecord
  2
DIVIDEX2
 70
    0
  3
Divide (2x) ________  .  .  ________  .  .  _
 72
   65
 73
    6
 40
63.5
 49
25.4
 74
    0
 49
-12.7
 74
    0
 49
0
 74
    0
 49
-12.7
 74
    0
 49
0
 74
    0
 49
-12.7
 74
    0
  0
LTYPE
  5
42
330
5
100
AcDbSymbolTableRecord
100
AcDbLinetypeTableRecord
  2
BORDER
 70
    0
  3
Border __ __ . __ __ . __ __ . __ __ . __ __ .
 72
   65
 73
    6
 40
44.45
 49
12.7
 74
    0
 49
-6.35
 74
    0
 49
12.7
 74
    0
 49
-6.35
 74
    0
 49
0
 74
    0
 49
-6.35
 74
    0
  0
LTYPE
  5
43
330
5
100
AcDbSymbolTableRecord
100
AcDbLinetypeTableRecord
  2
BORDERTINY
 70
    0
  3
Border (.15x) __.__.__.__.__.__.__.__.__.__.__.
 72
   65
 73
    6
 40
6.6675
 49
1.905
 74
    0
 49
-0.9525
 74
    0
 49
1.905
 74
    0
 49
-0.9525
 74
    0
 49
0
 74
    0
 49
-0.9525
 74
    0
  0
LTYPE
  5
44
330
5
100
AcDbSymbolTableRecord
100
AcDbLinetypeTableRecord
  2
BORDER2
 70
    0
  3
Border (.5x) __.__.__.__.__.__.__.__.__.__.__.
 72
   65
 73
    6
 40
22.225
 49
6.35
 74
    0
 49
-3.175
 74
    0
 49
6.35
 74
    0
 49
-3.175
 74
    0
 49
0
 74
    0
 49
-3.175
 74
    0
  0
LTYPE
  5
45
330
5
100
AcDbSymbolTableRecord
100
AcDbLinetypeTableRecord
  2
BORDERX2
 70
    0
  3
Border (2x) ____  ____  .  ____  ____  .  ___
 72
   65
 73
    6
 40
88.89999999999999
 49
25.4
 74
    0
 49
-12.7
 74
    0
 49
25.4
 74
    0
 49
-12.7
 74
    0
 49
0
 74
    0
 49
-12.7
 74
    0
  0
LTYPE
  5
46
330
5
100
AcDbSymbolTableRecord
100
AcDbLinetypeTableRecord
  2
CENTER
 70
    0
  3
Center ____ _ ____ _ ____ _ ____ _ ____ _ ____
 72
   65
 73
    4
 40
50.8
 49
31.75
 74
    0
 49
-6.35
 74
    0
 49
6.35
 74
    0
 49
-6.35
 74
    0
  0
LTYPE
  5
47
330
5
100
AcDbSymbolTableRecord
100
AcDbLinetypeTableRecord
  2
CENTERTINY
 70
    0
  3
Center (.15x) ___ _ ___ _ ___ _ ___ _ ___ _ ___
 72
   65
 73
    4
 40
7.62
 49
4.7625
 74
    0
 49
-0.9525
 74
    0
 49
0.9525
 74
    0
 49
-0.9525
 74
    0
  0
LTYPE
  5
48
330
5
100
AcDbSymbolTableRecord
100
AcDbLinetypeTableRecord
  2
CENTER2
 70
    0
  3
Center (.5x) ___ _ ___ _ ___ _ ___ _ ___ _ ___
 72
   65
 73
    4
 40
28.575
 49
19.05
 74
    0
 49
-3.175
 74
    0
 49
3.175
 74
    0
 49
-3.175
 74
    0
  0
LTYPE
  5
49
330
5
100
AcDbSymbolTableRecord
100
AcDbLinetypeTableRecord
  2
CENTERX2
 70
    0
  3
Center (2x) ________  __  ________  __  _____
 72
   65
 73
    4
 40
101.6
 49
63.5
 74
    0
 49
-12.7
 74
    0
 49
12.7
 74
    0
 49
-12.7
 74
    0
  0
ENDTAB
  0
TABLE
  2
LAYER
  5
2
330
0
100
AcDbSymbolTable
 70
    1
  0
LAYER
  5
10
330
2
100
AcDbSymbolTableRecord
100
AcDbLayerTableRecord
  2
0
 70
    0
 62
    7
  6
CONTINUOUS
370
   -3
390
F
  0
ENDTAB
  0
TABLE
  2
STYLE
  5
3
330
0
100
AcDbSymbolTable
 70
    3
  0
STYLE
  5
4A
330
2
100
AcDbSymbolTableRecord
100
AcDbTextStyleTableRecord
  2
Standard
 70
    0
 40
0
 41
1
 50
0
 71
    0
 42
1
  3
txt
  4

  0
ENDTAB
  0
TABLE
  2
VIEW
  5
6
330
0
100
AcDbSymbolTable
 70
    0
  0
ENDTAB
  0
TABLE
  2
UCS
  5
7
330
0
100
AcDbSymbolTable
 70
    0
  0
ENDTAB
  0
TABLE
  2
APPID
  5
9
330
0
100
AcDbSymbolTable
 70
    1
  0
APPID
  5
12
330
9
100
AcDbSymbolTableRecord
100
AcDbRegAppTableRecord
  2
ACAD
 70
    0
  0
APPID
  5
4B
330
9
100
AcDbSymbolTableRecord
100
AcDbRegAppTableRecord
  2
LibreCad
 70
    0
  0
ENDTAB
  0
TABLE
  2
DIMSTYLE
  5
A
330
0
100
AcDbSymbolTable
 70
    1
100
AcDbDimStyleTable
 71
    1
  0
DIMSTYLE
105
4C
330
A
100
AcDbSymbolTableRecord
100
AcDbDimStyleTableRecord
  2
Standard
 70
    0
 40
1
 41
1.8
 42
0.0625
 43
0.38
 44
0.18
 45
0
 46
0
 47
0
 48
0
 49
1
140
1.8
141
0.09
142
0
143
25.4
144
1
145
0
146
1
147
0.09
148
0
 71
    0
 72
    0
 73
    1
 74
    1
 75
    0
 76
    0
 77
    0
 78
    0
 79
    0
170
    0
171
    2
172
    0
173
    0
174
    0
175
    0
176
   18
177
   18
178
   18
179
    0
271
    4
272
    4
273
    2
274
    2
275
    0
276
    0
277
    2
278
   46
279
    0
280
    0
281
    0
282
    0
283
    1
284
    0
285
    0
286
    0
288
    0
289
    3
340
Standard
341

371
   -2
372
   -2
  0
ENDTAB
  0
TABLE
  2
BLOCK_RECORD
  5
1
330
0
100
AcDbSymbolTable
 70
    2
  0
BLOCK_RECORD
  5
1F
330
1
100
AcDbSymbolTableRecord
100
AcDbBlockTableRecord
  2
*Model_Space
 70
    0
280
    1
281
    0
  0
BLOCK_RECORD
  5
1E
330
1
100
AcDbSymbolTableRecord
100
AcDbBlockTableRecord
  2
*Paper_Space
 70
    0
280
    1
281
    0
  0
ENDTAB
  0
ENDSEC
  0
SECTION
  2
BLOCKS
  0
BLOCK
  5
20
330
1F
100
AcDbEntity
  8
0
100
AcDbBlockBegin
  2
*Model_Space
 70
    0
 10
0
 20
0
 30
0
  3
*Model_Space
  1

  0
ENDBLK
  5
21
330
1F
100
AcDbEntity
  8
0
100
AcDbBlockEnd
  0
BLOCK
  5
1C
330
1B
100
AcDbEntity
  8
0
100
AcDbBlockBegin
  2
*Paper_Space
 70
    0
 10
0
 20
0
 30
0
  3
*Paper_Space
  1

  0
ENDBLK
  5
1D
330
1F
100
AcDbEntity
  8
0
100
AcDbBlockEnd
  0
ENDSEC
  0
SECTION
  2
ENTITIES
  0
LINE
  5
4D
100
AcDbEntity
  8
0
  6
ByLayer
 62
  256
370
   -1
100
AcDbLine
 10
69.631
 20
-116.215
 11
69.28550849718748
 21
-115.7394717418524
  0
LINE
  5
4E
100
AcDbEntity
  8
0
  6
ByLayer
 62
  256
370
   -1
100
AcDbLine
 10
71.26649150281254
 20
-115.9211073738538
 11
71.17100000000002
 21
-116.215
  0
LINE
  5
4F
100
AcDbEntity
  8
0
  6
ByLayer
 62
  256
370
   -1
100
AcDbLine
 10
48.20011529493745
 20
-97.38595086466565
 11
48.822
 21
-96.53
  0
LINE
  5
50
100
AcDbEntity
  8
0
  6
ByLayer
 62
  256
370
   -1
100
AcDbLine
 10
69.28550849718748
 20
-115.7394717418524
 11
68.72649150281252
 21
-115.9211073738538
  0
LINE
  5
51
100
AcDbEntity
  8
0
  6
ByLayer
 62
  256
370
   -1
100
AcDbLine
 10
66.96100000000001
 20
-96.53
 11
67.13288470506257
 21
-97.05900672706322
  0
LINE
  5
52
100
AcDbEntity
  8
0
  6
ByLayer
 62
  256
370
   -1
100
AcDbLine
 10
71.8255084971875
 20
-115.7394717418524
 11
71.26649150281254
 21
-115.9211073738538
  0
LINE
  5
53
100
AcDbEntity
  8
0
  6
ByLayer
 62
  256
370
   -1
100
AcDbLine
 10
67.13288470506257
 20
-97.05900672706322
 11
68.13911529493747
 21
-97.38595086466565
  0
LINE
  5
54
100
AcDbEntity
  8
0
  6
ByLayer
 62
  256
370
   -1
100
AcDbLine
 10
68.13911529493747
 20
-97.38595086466565
 11
68.76100000000002
 21
-96.53
  0
LINE
  5
55
100
AcDbEntity
  8
0
  6
ByLayer
 62
  256
370
   -1
100
AcDbLine
 10
68.76100000000002
 20
-96.53
 11
68.13911529493747
 21
-95.67404913533436
  0
LINE
  5
56
100
AcDbEntity
  8
0
  6
ByLayer
 62
  256
370
   -1
100
AcDbLine
 10
68.13911529493747
 20
-95.67404913533436
 11
67.13288470506257
 21
-96.00099327293678
  0
LINE
  5
57
100
AcDbEntity
  8
0
  6
ByLayer
 62
  256
370
   -1
100
AcDbLine
 10
48.822
 20
-96.53
 11
48.20011529493745
 21
-95.67404913533436
  0
LINE
  5
58
100
AcDbEntity
  8
0
  6
ByLayer
 62
  256
370
   -1
100
AcDbLine
 10
67.13288470506257
 20
-96.00099327293678
 11
66.96100000000001
 21
-96.53
  0
LINE
  5
59
100
AcDbEntity
  8
0
  6
ByLayer
 62
  256
370
   -1
100
AcDbLine
 10
43.28300974233027
 20
-83.38200974233028
 11
42.624
 21
-84.97300000000001
  0
LINE
  5
5A
100
AcDbEntity
  8
0
  6
ByLayer
 62
  256
370
   -1
100
AcDbLine
 10
42.624
 20
-84.97300000000001
 11
43.28300974233027
 21
-86.56399025766974
  0
LINE
  5
5B
100
AcDbEntity
  8
0
  6
ByLayer
 62
  256
370
   -1
100
AcDbLine
 10
43.28300974233027
 20
-86.56399025766974
 11
44.874
 21
-87.22300000000001
  0
LINE
  5
5C
100
AcDbEntity
  8
0
  6
ByLayer
 62
  256
370
   -1
100
AcDbLine
 10
48.20011529493745
 20
-95.67404913533436
 11
47.19388470506255
 21
-96.00099327293678
  0
LINE
  5
5D
100
AcDbEntity
  8
0
  6
ByLayer
 62
  256
370
   -1
100
AcDbLine
 10
44.874
 20
-87.22300000000001
 11
46.46499025766973
 21
-86.56399025766974
  0
LINE
  5
5E
100
AcDbEntity
  8
0
  6
ByLayer
 62
  256
370
   -1
100
AcDbLine
 10
46.46499025766973
 20
-86.56399025766974
 11
47.124
 21
-84.97300000000001
  0
LINE
  5
5F
100
AcDbEntity
  8
0
  6
ByLayer
 62
  256
370
   -1
100
AcDbLine
 10
47.124
 20
-84.97300000000001
 11
46.46499025766973
 21
-83.38200974233028
  0
LINE
  5
60
100
AcDbEntity
  8
0
  6
ByLayer
 62
  256
370
   -1
100
AcDbLine
 10
46.46499025766973
 20
-83.38200974233028
 11
44.874
 21
-82.72300000000001
  0
LINE
  5
61
100
AcDbEntity
  8
0
  6
ByLayer
 62
  256
370
   -1
100
AcDbLine
 10
26.34380745694465
 20
-76.845
 11
95.8864081878633
 21
-76.845
  0
LINE
  5
62
100
AcDbEntity
  8
0
  6
ByLayer
 62
  256
370
   -1
100
AcDbLine
 10
44.874
 20
-82.72300000000001
 11
43.28300974233027
 21
-83.38200974233028
  0
LINE
  5
63
100
AcDbEntity
  8
0
  6
ByLayer
 62
  256
370
   -1
100
AcDbLine
 10
47.19388470506255
 20
-96.00099327293678
 11
47.02200000000001
 21
-96.53
  0
LINE
  5
64
100
AcDbEntity
  8
0
  6
ByLayer
 62
  256
370
   -1
100
AcDbLine
 10
47.02200000000001
 20
-96.53
 11
47.19388470506255
 21
-97.05900672706322
  0
LINE
  5
65
100
AcDbEntity
  8
0
  6
ByLayer
 62
  256
370
   -1
100
AcDbLine
 10
67.09099999999999
 20
-116.215
 11
66.74550849718747
 21
-115.7394717418524
  0
LINE
  5
66
100
AcDbEntity
  8
0
  6
ByLayer
 62
  256
370
   -1
100
AcDbLine
 10
68.72649150281252
 20
-115.9211073738538
 11
68.631
 21
-116.215
  0
LINE
  5
67
100
AcDbEntity
  8
0
  6
ByLayer
 62
  256
370
   -1
100
AcDbLine
 10
47.19388470506255
 20
-97.05900672706322
 11
48.20011529493745
 21
-97.38595086466565
  0
LINE
  5
68
100
AcDbEntity
  8
0
  6
ByLayer
 62
  256
370
   -1
100
AcDbLine
 10
66.74550849718747
 20
-115.7394717418524
 11
66.18649150281252
 21
-115.9211073738538
  0
LINE
  5
69
100
AcDbEntity
  8
0
  6
ByLayer
 62
  256
370
   -1
100
AcDbLine
 10
64.55100000000002
 20
-116.215
 11
64.20550849718749
 21
-115.7394717418524
  0
LINE
  5
6A
100
AcDbEntity
  8
0
  6
ByLayer
 62
  256
370
   -1
100
AcDbLine
 10
66.18649150281252
 20
-115.9211073738538
 11
66.09099999999999
 21
-116.215
  0
LINE
  5
6B
100
AcDbEntity
  8
0
  6
ByLayer
 62
  256
370
   -1
100
AcDbLine
 10
64.20550849718749
 20
-115.7394717418524
 11
63.64649150281254
 21
-115.9211073738538
  0
LINE
  5
6C
100
AcDbEntity
  8
0
  6
ByLayer
 62
  256
370
   -1
100
AcDbLine
 10
62.011
 20
-116.215
 11
61.66550849718747
 21
-115.7394717418524
  0
LINE
  5
6D
100
AcDbEntity
  8
0
  6
ByLayer
 62
  256
370
   -1
100
AcDbLine
 10
63.64649150281254
 20
-115.9211073738538
 11
63.55100000000002
 21
-116.215
  0
LINE
  5
6E
100
AcDbEntity
  8
0
  6
ByLayer
 62
  256
370
   -1
100
AcDbLine
 10
61.66550849718747
 20
-115.7394717418524
 11
61.10649150281253
 21
-115.9211073738538
  0
LINE
  5
6F
100
AcDbEntity
  8
0
  6
ByLayer
 62
  256
370
   -1
100
AcDbLine
 10
59.471
 20
-116.215
 11
59.12550849718748
 21
-115.7394717418524
  0
LINE
  5
70
100
AcDbEntity
  8
0
  6
ByLayer
 62
  256
370
   -1
100
AcDbLine
 10
61.10649150281253
 20
-115.9211073738538
 11
61.011
 21
-116.215
  0
LINE
  5
71
100
AcDbEntity
  8
0
  6
ByLayer
 62
  256
370
   -1
100
AcDbLine
 10
59.12550849718748
 20
-115.7394717418524
 11
58.56649150281253
 21
-115.9211073738538
  0
LINE
  5
72
100
AcDbEntity
  8
0
  6
ByLayer
 62
  256
370
   -1
100
AcDbLine
 10
54.391
 20
-116.215
 11
54.04550849718747
 21
-115.7394717418524
  0
LINE
  5
73
100
AcDbEntity
  8
0
  6
ByLayer
 62
  256
370
   -1
100
AcDbLine
 10
56.02649150281253
 20
-115.9211073738538
 11
55.931
 21
-116.215
  0
LINE
  5
74
100
AcDbEntity
  8
0
  6
ByLayer
 62
  256
370
   -1
100
AcDbLine
 10
56.931
 20
-116.215
 11
56.58550849718748
 21
-115.7394717418524
  0
LINE
  5
75
100
AcDbEntity
  8
0
  6
ByLayer
 62
  256
370
   -1
100
AcDbLine
 10
58.56649150281253
 20
-115.9211073738538
 11
58.471
 21
-116.215
  0
LINE
  5
76
100
AcDbEntity
  8
0
  6
ByLayer
 62
  256
370
   -1
100
AcDbLine
 10
56.58550849718748
 20
-115.7394717418524
 11
56.02649150281253
 21
-115.9211073738538
  0
LINE
  5
77
100
AcDbEntity
  8
0
  6
ByLayer
 62
  256
370
   -1
100
AcDbLine
 10
54.04550849718747
 20
-115.7394717418524
 11
53.48649150281253
 21
-115.9211073738538
  0
LINE
  5
78
100
AcDbEntity
  8
0
  6
ByLayer
 62
  256
370
   -1
100
AcDbLine
 10
51.85100000000001
 20
-116.215
 11
51.50550849718748
 21
-115.7394717418524
  0
LINE
  5
79
100
AcDbEntity
  8
0
  6
ByLayer
 62
  256
370
   -1
100
AcDbLine
 10
53.48649150281253
 20
-115.9211073738538
 11
53.391
 21
-116.215
  0
LINE
  5
7A
100
AcDbEntity
  8
0
  6
ByLayer
 62
  256
370
   -1
100
AcDbLine
 10
51.50550849718748
 20
-115.7394717418524
 11
50.94649150281253
 21
-115.9211073738538
  0
LINE
  5
7B
100
AcDbEntity
  8
0
  6
ByLayer
 62
  256
370
   -1
100
AcDbLine
 10
49.311
 20
-116.215
 11
48.96550849718747
 21
-115.7394717418524
  0
LINE
  5
7C
100
AcDbEntity
  8
0
  6
ByLayer
 62
  256
370
   -1
100
AcDbLine
 10
50.94649150281253
 20
-115.9211073738538
 11
50.85100000000001
 21
-116.215
  0
LINE
  5
7D
100
AcDbEntity
  8
0
  6
ByLayer
 62
  256
370
   -1
100
AcDbLine
 10
48.96550849718747
 20
-115.7394717418524
 11
48.40649150281253
 21
-115.9211073738538
  0
LINE
  5
7E
100
AcDbEntity
  8
0
  6
ByLayer
 62
  256
370
   -1
100
AcDbLine
 10
48.40649150281253
 20
-115.9211073738538
 11
48.311
 21
-116.215
  0
LINE
  5
7F
100
AcDbEntity
  8
0
  6
ByLayer
 62
  256
370
   -1
100
AcDbLine
 10
26.34380745694463
 20
-170.698
 11
26.34380745694465
 21
-76.845
  0
LINE
  5
80
100
AcDbEntity
  8
0
  6
ByLayer
 62
  256
370
   -1
100
AcDbLine
 10
34.068
 20
-105.039
 11
34.23988470506255
 21
-105.5680067270632
  0
LINE
  5
81
100
AcDbEntity
  8
0
  6
ByLayer
 62
  256
370
   -1
100
AcDbLine
 10
34.068
 20
-141.107
 11
34.23988470506255
 21
-141.6360067270633
  0
LINE
  5
82
100
AcDbEntity
  8
0
  6
ByLayer
 62
  256
370
   -1
100
AcDbLine
 10
32.036
 20
-162.697
 11
32.20788470506255
 21
-163.2260067270632
  0
LINE
  5
83
100
AcDbEntity
  8
0
  6
ByLayer
 62
  256
370
   -1
100
AcDbLine
 10
32.20788470506255
 20
-163.2260067270632
 11
33.21411529493745
 21
-163.5529508646656
  0
LINE
  5
84
100
AcDbEntity
  8
0
  6
ByLayer
 62
  256
370
   -1
100
AcDbLine
 10
90.07499999999999
 20
-162.697
 11
90.24688470506254
 21
-163.2260067270632
  0
LINE
  5
85
100
AcDbEntity
  8
0
  6
ByLayer
 62
  256
370
   -1
100
AcDbLine
 10
83.87400000000002
 20
-165.237
 11
83.25211529493747
 21
-164.3810491353344
  0
LINE
  5
86
100
AcDbEntity
  8
0
  6
ByLayer
 62
  256
370
   -1
100
AcDbLine
 10
41.837
 20
-165.237
 11
41.21511529493745
 21
-164.3810491353344
  0
LINE
  5
87
100
AcDbEntity
  8
0
  6
ByLayer
 62
  256
370
   -1
100
AcDbLine
 10
41.21511529493745
 20
-164.3810491353344
 11
40.20888470506254
 21
-164.7079932729368
  0
LINE
  5
88
100
AcDbEntity
  8
0
  6
ByLayer
 62
  256
370
   -1
100
AcDbLine
 10
33.21411529493745
 20
-163.5529508646656
 11
33.836
 21
-162.697
  0
LINE
  5
89
100
AcDbEntity
  8
0
  6
ByLayer
 62
  256
370
   -1
100
AcDbLine
 10
40.20888470506254
 20
-164.7079932729368
 11
40.037
 21
-165.237
  0
LINE
  5
8A
100
AcDbEntity
  8
0
  6
ByLayer
 62
  256
370
   -1
100
AcDbLine
 10
40.037
 20
-165.237
 11
40.20888470506254
 21
-165.7660067270633
  0
LINE
  5
8B
100
AcDbEntity
  8
0
  6
ByLayer
 62
  256
370
   -1
100
AcDbLine
 10
40.20888470506254
 20
-165.7660067270633
 11
41.21511529493745
 21
-166.0929508646657
  0
LINE
  5
8C
100
AcDbEntity
  8
0
  6
ByLayer
 62
  256
370
   -1
100
AcDbLine
 10
82.07400000000001
 20
-165.237
 11
82.24588470506256
 21
-165.7660067270633
  0
LINE
  5
8D
100
AcDbEntity
  8
0
  6
ByLayer
 62
  256
370
   -1
100
AcDbLine
 10
41.21511529493745
 20
-166.0929508646657
 11
41.837
 21
-165.237
  0
LINE
  5
8E
100
AcDbEntity
  8
0
  6
ByLayer
 62
  256
370
   -1
100
AcDbLine
 10
82.24588470506256
 20
-165.7660067270633
 11
83.25211529493747
 21
-166.0929508646657
  0
LINE
  5
8F
100
AcDbEntity
  8
0
  6
ByLayer
 62
  256
370
   -1
100
AcDbLine
 10
95.88640818786328
 20
-170.698
 11
26.34380745694463
 21
-170.698
  0
LINE
  5
90
100
AcDbEntity
  8
0
  6
ByLayer
 62
  256
370
   -1
100
AcDbLine
 10
90.24688470506254
 20
-163.2260067270632
 11
91.25311529493744
 21
-163.5529508646656
  0
LINE
  5
91
100
AcDbEntity
  8
0
  6
ByLayer
 62
  256
370
   -1
100
AcDbLine
 10
83.25211529493747
 20
-166.0929508646657
 11
83.87400000000002
 21
-165.237
  0
LINE
  5
92
100
AcDbEntity
  8
0
  6
ByLayer
 62
  256
370
   -1
100
AcDbLine
 10
91.25311529493744
 20
-163.5529508646656
 11
91.875
 21
-162.697
  0
LINE
  5
93
100
AcDbEntity
  8
0
  6
ByLayer
 62
  256
370
   -1
100
AcDbLine
 10
91.875
 20
-162.697
 11
91.25311529493744
 21
-161.8410491353344
  0
LINE
  5
94
100
AcDbEntity
  8
0
  6
ByLayer
 62
  256
370
   -1
100
AcDbLine
 10
89.22111529493745
 20
-146.5349508646657
 11
89.843
 21
-145.679
  0
LINE
  5
95
100
AcDbEntity
  8
0
  6
ByLayer
 62
  256
370
   -1
100
AcDbLine
 10
91.25311529493744
 20
-161.8410491353344
 11
90.24688470506254
 21
-162.1679932729368
  0
LINE
  5
96
100
AcDbEntity
  8
0
  6
ByLayer
 62
  256
370
   -1
100
AcDbLine
 10
90.24688470506254
 20
-162.1679932729368
 11
90.07499999999999
 21
-162.697
  0
LINE
  5
97
100
AcDbEntity
  8
0
  6
ByLayer
 62
  256
370
   -1
100
AcDbLine
 10
95.8864081878633
 20
-76.845
 11
95.88640818786328
 21
-170.698
  0
LINE
  5
98
100
AcDbEntity
  8
0
  6
ByLayer
 62
  256
370
   -1
100
AcDbLine
 10
89.843
 20
-145.679
 11
89.22111529493745
 21
-144.8230491353344
  0
LINE
  5
99
100
AcDbEntity
  8
0
  6
ByLayer
 62
  256
370
   -1
100
AcDbLine
 10
33.836
 20
-162.697
 11
33.21411529493745
 21
-161.8410491353344
  0
LINE
  5
9A
100
AcDbEntity
  8
0
  6
ByLayer
 62
  256
370
   -1
100
AcDbLine
 10
33.21411529493745
 20
-161.8410491353344
 11
32.20788470506255
 21
-162.1679932729368
  0
LINE
  5
9B
100
AcDbEntity
  8
0
  6
ByLayer
 62
  256
370
   -1
100
AcDbLine
 10
34.23988470506255
 20
-141.6360067270633
 11
35.24611529493745
 21
-141.9629508646657
  0
LINE
  5
9C
100
AcDbEntity
  8
0
  6
ByLayer
 62
  256
370
   -1
100
AcDbLine
 10
32.20788470506255
 20
-162.1679932729368
 11
32.036
 21
-162.697
  0
LINE
  5
9D
100
AcDbEntity
  8
0
  6
ByLayer
 62
  256
370
   -1
100
AcDbLine
 10
35.24611529493745
 20
-141.9629508646657
 11
35.868
 21
-141.107
  0
LINE
  5
9E
100
AcDbEntity
  8
0
  6
ByLayer
 62
  256
370
   -1
100
AcDbLine
 10
35.868
 20
-141.107
 11
35.24611529493745
 21
-140.2510491353344
  0
LINE
  5
9F
100
AcDbEntity
  8
0
  6
ByLayer
 62
  256
370
   -1
100
AcDbLine
 10
34.23988470506255
 20
-105.5680067270632
 11
35.24611529493745
 21
-105.8949508646657
  0
LINE
  5
A0
100
AcDbEntity
  8
0
  6
ByLayer
 62
  256
370
   -1
100
AcDbLine
 10
35.24611529493745
 20
-140.2510491353344
 11
34.23988470506255
 21
-140.5779932729368
  0
LINE
  5
A1
100
AcDbEntity
  8
0
  6
ByLayer
 62
  256
370
   -1
100
AcDbLine
 10
34.23988470506255
 20
-140.5779932729368
 11
34.068
 21
-141.107
  0
LINE
  5
A2
100
AcDbEntity
  8
0
  6
ByLayer
 62
  256
370
   -1
100
AcDbLine
 10
48.311
 20
-116.215
 11
48.40649150281253
 21
-116.5088926261462
  0
LINE
  5
A3
100
AcDbEntity
  8
0
  6
ByLayer
 62
  256
370
   -1
100
AcDbLine
 10
35.24611529493745
 20
-105.8949508646657
 11
35.868
 21
-105.039
  0
LINE
  5
A4
100
AcDbEntity
  8
0
  6
ByLayer
 62
  256
370
   -1
100
AcDbLine
 10
48.40649150281253
 20
-116.5088926261462
 11
48.96550849718747
 21
-116.6905282581476
  0
LINE
  5
A5
100
AcDbEntity
  8
0
  6
ByLayer
 62
  256
370
   -1
100
AcDbLine
 10
35.868
 20
-105.039
 11
35.24611529493745
 21
-104.1830491353344
  0
LINE
  5
A6
100
AcDbEntity
  8
0
  6
ByLayer
 62
  256
370
   -1
100
AcDbLine
 10
35.24611529493745
 20
-104.1830491353344
 11
34.23988470506255
 21
-104.5099932729368
  0
LINE
  5
A7
100
AcDbEntity
  8
0
  6
ByLayer
 62
  256
370
   -1
100
AcDbLine
 10
34.23988470506255
 20
-104.5099932729368
 11
34.068
 21
-105.039
  0
LINE
  5
A8
100
AcDbEntity
  8
0
  6
ByLayer
 62
  256
370
   -1
100
AcDbLine
 10
50.85100000000001
 20
-116.215
 11
50.94649150281253
 21
-116.5088926261462
  0
LINE
  5
A9
100
AcDbEntity
  8
0
  6
ByLayer
 62
  256
370
   -1
100
AcDbLine
 10
48.96550849718747
 20
-116.6905282581476
 11
49.311
 21
-116.215
  0
LINE
  5
AA
100
AcDbEntity
  8
0
  6
ByLayer
 62
  256
370
   -1
100
AcDbLine
 10
50.94649150281253
 20
-116.5088926261462
 11
51.50550849718748
 21
-116.6905282581476
  0
LINE
  5
AB
100
AcDbEntity
  8
0
  6
ByLayer
 62
  256
370
   -1
100
AcDbLine
 10
53.391
 20
-116.215
 11
53.48649150281253
 21
-116.5088926261462
  0
LINE
  5
AC
100
AcDbEntity
  8
0
  6
ByLayer
 62
  256
370
   -1
100
AcDbLine
 10
51.50550849718748
 20
-116.6905282581476
 11
51.85100000000001
 21
-116.215
  0
LINE
  5
AD
100
AcDbEntity
  8
0
  6
ByLayer
 62
  256
370
   -1
100
AcDbLine
 10
53.48649150281253
 20
-116.5088926261462
 11
54.04550849718747
 21
-116.6905282581476
  0
LINE
  5
AE
100
AcDbEntity
  8
0
  6
ByLayer
 62
  256
370
   -1
100
AcDbLine
 10
55.931
 20
-116.215
 11
56.02649150281253
 21
-116.5088926261462
  0
LINE
  5
AF
100
AcDbEntity
  8
0
  6
ByLayer
 62
  256
370
   -1
100
AcDbLine
 10
54.04550849718747
 20
-116.6905282581476
 11
54.391
 21
-116.215
  0
LINE
  5
B0
100
AcDbEntity
  8
0
  6
ByLayer
 62
  256
370
   -1
100
AcDbLine
 10
56.02649150281253
 20
-116.5088926261462
 11
56.58550849718748
 21
-116.6905282581476
  0
LINE
  5
B1
100
AcDbEntity
  8
0
  6
ByLayer
 62
  256
370
   -1
100
AcDbLine
 10
88.04299999999999
 20
-145.679
 11
88.21488470506254
 21
-146.2080067270633
  0
LINE
  5
B2
100
AcDbEntity
  8
0
  6
ByLayer
 62
  256
370
   -1
100
AcDbLine
 10
58.471
 20
-116.215
 11
58.56649150281253
 21
-116.5088926261462
  0
LINE
  5
B3
100
AcDbEntity
  8
0
  6
ByLayer
 62
  256
370
   -1
100
AcDbLine
 10
56.58550849718748
 20
-116.6905282581476
 11
56.931
 21
-116.215
  0
LINE
  5
B4
100
AcDbEntity
  8
0
  6
ByLayer
 62
  256
370
   -1
100
AcDbLine
 10
70.90900000000002
 20
-149.398
 11
69.31800974233029
 21
-150.0570097423303
  0
LINE
  5
B5
100
AcDbEntity
  8
0
  6
ByLayer
 62
  256
370
   -1
100
AcDbLine
 10
58.56649150281253
 20
-116.5088926261462
 11
59.12550849718748
 21
-116.6905282581476
  0
LINE
  5
B6
100
AcDbEntity
  8
0
  6
ByLayer
 62
  256
370
   -1
100
AcDbLine
 10
69.31800974233029
 20
-150.0570097423303
 11
68.65900000000002
 21
-151.648
  0
LINE
  5
B7
100
AcDbEntity
  8
0
  6
ByLayer
 62
  256
370
   -1
100
AcDbLine
 10
68.65900000000002
 20
-151.648
 11
69.31800974233029
 21
-153.2389902576697
  0
LINE
  5
B8
100
AcDbEntity
  8
0
  6
ByLayer
 62
  256
370
   -1
100
AcDbLine
 10
69.31800974233029
 20
-153.2389902576697
 11
70.90900000000002
 21
-153.898
  0
LINE
  5
B9
100
AcDbEntity
  8
0
  6
ByLayer
 62
  256
370
   -1
100
AcDbLine
 10
83.25211529493747
 20
-164.3810491353344
 11
82.24588470506256
 21
-164.7079932729368
  0
LINE
  5
BA
100
AcDbEntity
  8
0
  6
ByLayer
 62
  256
370
   -1
100
AcDbLine
 10
70.90900000000002
 20
-153.898
 11
72.49999025766975
 21
-153.2389902576697
  0
LINE
  5
BB
100
AcDbEntity
  8
0
  6
ByLayer
 62
  256
370
   -1
100
AcDbLine
 10
88.21488470506254
 20
-146.2080067270633
 11
89.22111529493745
 21
-146.5349508646657
  0
LINE
  5
BC
100
AcDbEntity
  8
0
  6
ByLayer
 62
  256
370
   -1
100
AcDbLine
 10
72.49999025766975
 20
-153.2389902576697
 11
73.15900000000002
 21
-151.648
  0
LINE
  5
BD
100
AcDbEntity
  8
0
  6
ByLayer
 62
  256
370
   -1
100
AcDbLine
 10
82.24588470506256
 20
-164.7079932729368
 11
82.07400000000001
 21
-165.237
  0
LINE
  5
BE
100
AcDbEntity
  8
0
  6
ByLayer
 62
  256
370
   -1
100
AcDbLine
 10
61.011
 20
-116.215
 11
61.10649150281253
 21
-116.5088926261462
  0
LINE
  5
BF
100
AcDbEntity
  8
0
  6
ByLayer
 62
  256
370
   -1
100
AcDbLine
 10
59.12550849718748
 20
-116.6905282581476
 11
59.471
 21
-116.215
  0
LINE
  5
C0
100
AcDbEntity
  8
0
  6
ByLayer
 62
  256
370
   -1
100
AcDbLine
 10
72.49999025766975
 20
-150.0570097423303
 11
70.90900000000002
 21
-149.398
  0
LINE
  5
C1
100
AcDbEntity
  8
0
  6
ByLayer
 62
  256
370
   -1
100
AcDbLine
 10
61.10649150281253
 20
-116.5088926261462
 11
61.66550849718747
 21
-116.6905282581476
  0
LINE
  5
C2
100
AcDbEntity
  8
0
  6
ByLayer
 62
  256
370
   -1
100
AcDbLine
 10
73.15900000000002
 20
-151.648
 11
72.49999025766975
 21
-150.0570097423303
  0
LINE
  5
C3
100
AcDbEntity
  8
0
  6
ByLayer
 62
  256
370
   -1
100
AcDbLine
 10
63.55100000000002
 20
-116.215
 11
63.64649150281254
 21
-116.5088926261462
  0
LINE
  5
C4
100
AcDbEntity
  8
0
  6
ByLayer
 62
  256
370
   -1
100
AcDbLine
 10
61.66550849718747
 20
-116.6905282581476
 11
62.011
 21
-116.215
  0
LINE
  5
C5
100
AcDbEntity
  8
0
  6
ByLayer
 62
  256
370
   -1
100
AcDbLine
 10
63.64649150281254
 20
-116.5088926261462
 11
64.20550849718749
 21
-116.6905282581476
  0
LINE
  5
C6
100
AcDbEntity
  8
0
  6
ByLayer
 62
  256
370
   -1
100
AcDbLine
 10
66.09099999999999
 20
-116.215
 11
66.18649150281252
 21
-116.5088926261462
  0
LINE
  5
C7
100
AcDbEntity
  8
0
  6
ByLayer
 62
  256
370
   -1
100
AcDbLine
 10
64.20550849718749
 20
-116.6905282581476
 11
64.55100000000002
 21
-116.215
  0
LINE
  5
C8
100
AcDbEntity
  8
0
  6
ByLayer
 62
  256
370
   -1
100
AcDbLine
 10
66.18649150281252
 20
-116.5088926261462
 11
66.74550849718747
 21
-116.6905282581476
  0
LINE
  5
C9
100
AcDbEntity
  8
0
  6
ByLayer
 62
  256
370
   -1
100
AcDbLine
 10
68.631
 20
-116.215
 11
68.72649150281252
 21
-116.5088926261462
  0
LINE
  5
CA
100
AcDbEntity
  8
0
  6
ByLayer
 62
  256
370
   -1
100
AcDbLine
 10
66.74550849718747
 20
-116.6905282581476
 11
67.09099999999999
 21
-116.215
  0
LINE
  5
CB
100
AcDbEntity
  8
0
  6
ByLayer
 62
  256
370
   -1
100
AcDbLine
 10
68.72649150281252
 20
-116.5088926261462
 11
69.28550849718748
 21
-116.6905282581476
  0
LINE
  5
CC
100
AcDbEntity
  8
0
  6
ByLayer
 62
  256
370
   -1
100
AcDbLine
 10
71.17100000000002
 20
-116.215
 11
71.26649150281254
 21
-116.5088926261462
  0
LINE
  5
CD
100
AcDbEntity
  8
0
  6
ByLayer
 62
  256
370
   -1
100
AcDbLine
 10
69.28550849718748
 20
-116.6905282581476
 11
69.631
 21
-116.215
  0
LINE
  5
CE
100
AcDbEntity
  8
0
  6
ByLayer
 62
  256
370
   -1
100
AcDbLine
 10
71.26649150281254
 20
-116.5088926261462
 11
71.8255084971875
 21
-116.6905282581476
  0
LINE
  5
CF
100
AcDbEntity
  8
0
  6
ByLayer
 62
  256
370
   -1
100
AcDbLine
 10
73.711
 20
-116.215
 11
73.80649150281252
 21
-116.5088926261462
  0
LINE
  5
D0
100
AcDbEntity
  8
0
  6
ByLayer
 62
  256
370
   -1
100
AcDbLine
 10
71.8255084971875
 20
-116.6905282581476
 11
72.17100000000002
 21
-116.215
  0
LINE
  5
D1
100
AcDbEntity
  8
0
  6
ByLayer
 62
  256
370
   -1
100
AcDbLine
 10
73.80649150281252
 20
-116.5088926261462
 11
74.36550849718748
 21
-116.6905282581476
  0
LINE
  5
D2
100
AcDbEntity
  8
0
  6
ByLayer
 62
  256
370
   -1
100
AcDbLine
 10
87.154
 20
-96.53
 11
87.32588470506255
 21
-97.05900672706322
  0
LINE
  5
D3
100
AcDbEntity
  8
0
  6
ByLayer
 62
  256
370
   -1
100
AcDbLine
 10
87.32588470506255
 20
-97.05900672706322
 11
88.33211529493745
 21
-97.38595086466565
  0
LINE
  5
D4
100
AcDbEntity
  8
0
  6
ByLayer
 62
  256
370
   -1
100
AcDbLine
 10
88.33211529493745
 20
-97.38595086466565
 11
88.95400000000001
 21
-96.53
  0
LINE
  5
D5
100
AcDbEntity
  8
0
  6
ByLayer
 62
  256
370
   -1
100
AcDbLine
 10
88.04299999999999
 20
-109.611
 11
88.21488470506254
 21
-110.1400067270632
  0
LINE
  5
D6
100
AcDbEntity
  8
0
  6
ByLayer
 62
  256
370
   -1
100
AcDbLine
 10
76.251
 20
-116.215
 11
76.34649150281253
 21
-116.5088926261462
  0
LINE
  5
D7
100
AcDbEntity
  8
0
  6
ByLayer
 62
  256
370
   -1
100
AcDbLine
 10
74.36550849718748
 20
-116.6905282581476
 11
74.711
 21
-116.215
  0
LINE
  5
D8
100
AcDbEntity
  8
0
  6
ByLayer
 62
  256
370
   -1
100
AcDbLine
 10
76.34649150281253
 20
-116.5088926261462
 11
76.90550849718748
 21
-116.6905282581476
  0
LINE
  5
D9
100
AcDbEntity
  8
0
  6
ByLayer
 62
  256
370
   -1
100
AcDbLine
 10
76.90550849718748
 20
-116.6905282581476
 11
77.251
 21
-116.215
  0
LINE
  5
DA
100
AcDbEntity
  8
0
  6
ByLayer
 62
  256
370
   -1
100
AcDbLine
 10
77.251
 20
-116.215
 11
76.90550849718748
 21
-115.7394717418524
  0
LINE
  5
DB
100
AcDbEntity
  8
0
  6
ByLayer
 62
  256
370
   -1
100
AcDbLine
 10
76.90550849718748
 20
-115.7394717418524
 11
76.34649150281253
 21
-115.9211073738538
  0
LINE
  5
DC
100
AcDbEntity
  8
0
  6
ByLayer
 62
  256
370
   -1
100
AcDbLine
 10
74.711
 20
-116.215
 11
74.36550849718748
 21
-115.7394717418524
  0
LINE
  5
DD
100
AcDbEntity
  8
0
  6
ByLayer
 62
  256
370
   -1
100
AcDbLine
 10
76.34649150281253
 20
-115.9211073738538
 11
76.251
 21
-116.215
  0
LINE
  5
DE
100
AcDbEntity
  8
0
  6
ByLayer
 62
  256
370
   -1
100
AcDbLine
 10
88.21488470506254
 20
-110.1400067270632
 11
89.22111529493745
 21
-110.4669508646657
  0
LINE
  5
DF
100
AcDbEntity
  8
0
  6
ByLayer
 62
  256
370
   -1
100
AcDbLine
 10
74.36550849718748
 20
-115.7394717418524
 11
73.80649150281252
 21
-115.9211073738538
  0
LINE
  5
E0
100
AcDbEntity
  8
0
  6
ByLayer
 62
  256
370
   -1
100
AcDbLine
 10
72.17100000000002
 20
-116.215
 11
71.8255084971875
 21
-115.7394717418524
  0
LINE
  5
E1
100
AcDbEntity
  8
0
  6
ByLayer
 62
  256
370
   -1
100
AcDbLine
 10
73.80649150281252
 20
-115.9211073738538
 11
73.711
 21
-116.215
  0
LINE
  5
E2
100
AcDbEntity
  8
0
  6
ByLayer
 62
  256
370
   -1
100
AcDbLine
 10
89.22111529493745
 20
-110.4669508646657
 11
89.843
 21
-109.611
  0
LINE
  5
E3
100
AcDbEntity
  8
0
  6
ByLayer
 62
  256
370
   -1
100
AcDbLine
 10
89.22111529493745
 20
-144.8230491353344
 11
88.21488470506254
 21
-145.1499932729368
  0
LINE
  5
E4
100
AcDbEntity
  8
0
  6
ByLayer
 62
  256
370
   -1
100
AcDbLine
 10
89.843
 20
-109.611
 11
89.22111529493745
 21
-108.7550491353344
  0
LINE
  5
E5
100
AcDbEntity
  8
0
  6
ByLayer
 62
  256
370
   -1
100
AcDbLine
 10
89.22111529493745
 20
-108.7550491353344
 11
88.21488470506254
 21
-109.0819932729368
  0
LINE
  5
E6
100
AcDbEntity
  8
0
  6
ByLayer
 62
  256
370
   -1
100
AcDbLine
 10
88.21488470506254
 20
-109.0819932729368
 11
88.04299999999999
 21
-109.611
  0
LINE
  5
E7
100
AcDbEntity
  8
0
  6
ByLayer
 62
  256
370
   -1
100
AcDbLine
 10
88.95400000000001
 20
-96.53
 11
88.33211529493745
 21
-95.67404913533436
  0
LINE
  5
E8
100
AcDbEntity
  8
0
  6
ByLayer
 62
  256
370
   -1
100
AcDbLine
 10
88.33211529493745
 20
-95.67404913533436
 11
87.32588470506255
 21
-96.00099327293678
  0
LINE
  5
E9
100
AcDbEntity
  8
0
  6
ByLayer
 62
  256
370
   -1
100
AcDbLine
 10
87.32588470506255
 20
-96.00099327293678
 11
87.154
 21
-96.53
  0
LINE
  5
EA
100
AcDbEntity
  8
0
  6
ByLayer
 62
  256
370
   -1
100
AcDbLine
 10
88.21488470506254
 20
-145.1499932729368
 11
88.04299999999999
 21
-145.679
  0
LINE
  5
EB
100
AcDbEntity
  8
0
  6
ByLayer
 62
  256
370
   -1
100
AcDbLine
 10
26.34380745694465
 20
-170.698
 11
26.34380745694465
 21
-170.698
  0
LINE
  5
EC
100
AcDbEntity
  8
0
  6
ByLayer
 62
  256
370
   -1
100
AcDbLine
 10
26.34380745694465
 20
-170.698
 11
26.34380745694465
 21
-76.845
  0
LINE
  5
ED
100
AcDbEntity
  8
0
  6
ByLayer
 62
  256
370
   -1
100
AcDbLine
 10
26.34380745694465
 20
-76.845
 11
26.34380745694465
 21
-170.698
  0
LINE
  5
EE
100
AcDbEntity
  8
0
  6
ByLayer
 62
  256
370
   -1
100
AcDbLine
 10
26.34380745694465
 20
-76.845
 11
26.34380745694464
 21
-76.845
  0
LINE
  5
EF
100
AcDbEntity
  8
0
  6
ByLayer
 62
  256
370
   -1
100
AcDbLine
 10
26.34380745694464
 20
-76.845
 11
95.8864081878633
 21
-76.845
  0
LINE
  5
F0
100
AcDbEntity
  8
0
  6
ByLayer
 62
  256
370
   -1
100
AcDbLine
 10
95.8864081878633
 20
-76.845
 11
26.34380745694465
 21
-76.845
  0
LINE
  5
F1
100
AcDbEntity
  8
0
  6
ByLayer
 62
  256
370
   -1
100
AcDbLine
 10
95.88640818786328
 20
-76.845
 11
95.8864081878633
 21
-76.845
  0
LINE
  5
F2
100
AcDbEntity
  8
0
  6
ByLayer
 62
  256
370
   -1
100
AcDbLine
 10
95.8864081878633
 20
-76.845
 11
95.88640818786328
 21
-170.698
  0
LINE
  5
F3
100
AcDbEntity
  8
0
  6
ByLayer
 62
  256
370
   -1
100
AcDbLine
 10
95.88640818786328
 20
-170.698
 11
95.88640818786328
 21
-76.845
  0
LINE
  5
F4
100
AcDbEntity
  8
0
  6
ByLayer
 62
  256
370
   -1
100
AcDbLine
 10
26.34380745694465
 20
-170.698
 11
95.8864081878633
 21
-170.698
  0
LINE
  5
F5
100
AcDbEntity
  8
0
  6
ByLayer
 62
  256
370
   -1
100
AcDbLine
 10
95.8864081878633
 20
-170.698
 11
95.88640818786328
 21
-170.698
  0
LINE
  5
F6
100
AcDbEntity
  8
0
  6
ByLayer
 62
  256
370
   -1
100
AcDbLine
 10
26.34380745694465
 20
-170.698
 11
26.34380745694465
 21
-170.698
  0
LINE
  5
F7
100
AcDbEntity
  8
0
  6
ByLayer
 62
  256
370
   -1
100
AcDbLine
 10
87.154
 20
-96.53
 11
87.32588470506255
 21
-96.00099327293678
  0
LINE
  5
F8
100
AcDbEntity
  8
0
  6
ByLayer
 62
  256
370
   -1
100
AcDbLine
 10
87.32588470506255
 20
-97.05900672706322
 11
87.154
 21
-96.53
  0
LINE
  5
F9
100
AcDbEntity
  8
0
  6
ByLayer
 62
  256
370
   -1
100
AcDbLine
 10
88.33211529493745
 20
-97.38595086466565
 11
87.32588470506255
 21
-97.05900672706322
  0
LINE
  5
FA
100
AcDbEntity
  8
0
  6
ByLayer
 62
  256
370
   -1
100
AcDbLine
 10
88.95400000000001
 20
-96.53
 11
88.33211529493745
 21
-97.38595086466565
  0
LINE
  5
FB
100
AcDbEntity
  8
0
  6
ByLayer
 62
  256
370
   -1
100
AcDbLine
 10
88.04299999999999
 20
-109.611
 11
88.21488470506254
 21
-109.0819932729368
  0
LINE
  5
FC
100
AcDbEntity
  8
0
  6
ByLayer
 62
  256
370
   -1
100
AcDbLine
 10
88.21488470506254
 20
-110.1400067270632
 11
88.04299999999999
 21
-109.611
  0
LINE
  5
FD
100
AcDbEntity
  8
0
  6
ByLayer
 62
  256
370
   -1
100
AcDbLine
 10
76.251
 20
-116.215
 11
76.34649150281253
 21
-115.9211073738538
  0
LINE
  5
FE
100
AcDbEntity
  8
0
  6
ByLayer
 62
  256
370
   -1
100
AcDbLine
 10
76.90550849718748
 20
-115.7394717418524
 11
77.251
 21
-116.215
  0
LINE
  5
FF
100
AcDbEntity
  8
0
  6
ByLayer
 62
  256
370
   -1
100
AcDbLine
 10
74.36550849718748
 20
-115.7394717418524
 11
74.711
 21
-116.215
  0
LINE
  5
100
100
AcDbEntity
  8
0
  6
ByLayer
 62
  256
370
   -1
100
AcDbLine
 10
76.34649150281253
 20
-115.9211073738538
 11
76.90550849718748
 21
-115.7394717418524
  0
LINE
  5
101
100
AcDbEntity
  8
0
  6
ByLayer
 62
  256
370
   -1
100
AcDbLine
 10
73.80649150281252
 20
-115.9211073738538
 11
74.36550849718748
 21
-115.7394717418524
  0
LINE
  5
102
100
AcDbEntity
  8
0
  6
ByLayer
 62
  256
370
   -1
100
AcDbLine
 10
71.8255084971875
 20
-115.7394717418524
 11
72.17100000000002
 21
-116.215
  0
LINE
  5
103
100
AcDbEntity
  8
0
  6
ByLayer
 62
  256
370
   -1
100
AcDbLine
 10
73.711
 20
-116.215
 11
73.80649150281252
 21
-115.9211073738538
  0
LINE
  5
104
100
AcDbEntity
  8
0
  6
ByLayer
 62
  256
370
   -1
100
AcDbLine
 10
69.28550849718748
 20
-115.7394717418524
 11
69.631
 21
-116.215
  0
LINE
  5
105
100
AcDbEntity
  8
0
  6
ByLayer
 62
  256
370
   -1
100
AcDbLine
 10
71.17100000000002
 20
-116.215
 11
71.26649150281254
 21
-115.9211073738538
  0
LINE
  5
106
100
AcDbEntity
  8
0
  6
ByLayer
 62
  256
370
   -1
100
AcDbLine
 10
48.822
 20
-96.53
 11
48.20011529493745
 21
-97.38595086466565
  0
LINE
  5
107
100
AcDbEntity
  8
0
  6
ByLayer
 62
  256
370
   -1
100
AcDbLine
 10
68.72649150281252
 20
-115.9211073738538
 11
69.28550849718748
 21
-115.7394717418524
  0
LINE
  5
108
100
AcDbEntity
  8
0
  6
ByLayer
 62
  256
370
   -1
100
AcDbLine
 10
66.96100000000001
 20
-96.53
 11
67.13288470506257
 21
-96.00099327293678
  0
LINE
  5
109
100
AcDbEntity
  8
0
  6
ByLayer
 62
  256
370
   -1
100
AcDbLine
 10
48.20011529493745
 20
-95.67404913533436
 11
48.822
 21
-96.53
  0
LINE
  5
10A
100
AcDbEntity
  8
0
  6
ByLayer
 62
  256
370
   -1
100
AcDbLine
 10
67.13288470506257
 20
-97.05900672706322
 11
66.96100000000001
 21
-96.53
  0
LINE
  5
10B
100
AcDbEntity
  8
0
  6
ByLayer
 62
  256
370
   -1
100
AcDbLine
 10
71.26649150281254
 20
-115.9211073738538
 11
71.8255084971875
 21
-115.7394717418524
  0
LINE
  5
10C
100
AcDbEntity
  8
0
  6
ByLayer
 62
  256
370
   -1
100
AcDbLine
 10
68.13911529493747
 20
-97.38595086466565
 11
67.13288470506257
 21
-97.05900672706322
  0
LINE
  5
10D
100
AcDbEntity
  8
0
  6
ByLayer
 62
  256
370
   -1
100
AcDbLine
 10
68.76100000000002
 20
-96.53
 11
68.13911529493747
 21
-97.38595086466565
  0
LINE
  5
10E
100
AcDbEntity
  8
0
  6
ByLayer
 62
  256
370
   -1
100
AcDbLine
 10
68.13911529493747
 20
-95.67404913533436
 11
68.76100000000002
 21
-96.53
  0
LINE
  5
10F
100
AcDbEntity
  8
0
  6
ByLayer
 62
  256
370
   -1
100
AcDbLine
 10
47.124
 20
-84.97300000000001
 11
46.46499025766973
 21
-86.56399025766974
  0
LINE
  5
110
100
AcDbEntity
  8
0
  6
ByLayer
 62
  256
370
   -1
100
AcDbLine
 10
67.13288470506257
 20
-96.00099327293678
 11
68.13911529493747
 21
-95.67404913533436
  0
LINE
  5
111
100
AcDbEntity
  8
0
  6
ByLayer
 62
  256
370
   -1
100
AcDbLine
 10
46.46499025766973
 20
-83.38200974233028
 11
47.124
 21
-84.97300000000001
  0
LINE
  5
112
100
AcDbEntity
  8
0
  6
ByLayer
 62
  256
370
   -1
100
AcDbLine
 10
44.874
 20
-82.72300000000001
 11
46.46499025766973
 21
-83.38200974233028
  0
LINE
  5
113
100
AcDbEntity
  8
0
  6
ByLayer
 62
  256
370
   -1
100
AcDbLine
 10
95.8864081878633
 20
-76.845
 11
26.34380745694465
 21
-76.845
  0
LINE
  5
114
100
AcDbEntity
  8
0
  6
ByLayer
 62
  256
370
   -1
100
AcDbLine
 10
43.28300974233027
 20
-83.38200974233028
 11
44.874
 21
-82.72300000000001
  0
LINE
  5
115
100
AcDbEntity
  8
0
  6
ByLayer
 62
  256
370
   -1
100
AcDbLine
 10
42.624
 20
-84.97300000000001
 11
43.28300974233027
 21
-83.38200974233028
  0
LINE
  5
116
100
AcDbEntity
  8
0
  6
ByLayer
 62
  256
370
   -1
100
AcDbLine
 10
43.28300974233027
 20
-86.56399025766974
 11
42.624
 21
-84.97300000000001
  0
LINE
  5
117
100
AcDbEntity
  8
0
  6
ByLayer
 62
  256
370
   -1
100
AcDbLine
 10
44.874
 20
-87.22300000000001
 11
43.28300974233027
 21
-86.56399025766974
  0
LINE
  5
118
100
AcDbEntity
  8
0
  6
ByLayer
 62
  256
370
   -1
100
AcDbLine
 10
47.19388470506255
 20
-96.00099327293678
 11
48.20011529493745
 21
-95.67404913533436
  0
LINE
  5
119
100
AcDbEntity
  8
0
  6
ByLayer
 62
  256
370
   -1
100
AcDbLine
 10
46.46499025766973
 20
-86.56399025766974
 11
44.874
 21
-87.22300000000001
  0
LINE
  5
11A
100
AcDbEntity
  8
0
  6
ByLayer
 62
  256
370
   -1
100
AcDbLine
 10
47.02200000000001
 20
-96.53
 11
47.19388470506255
 21
-96.00099327293678
  0
LINE
  5
11B
100
AcDbEntity
  8
0
  6
ByLayer
 62
  256
370
   -1
100
AcDbLine
 10
47.19388470506255
 20
-97.05900672706322
 11
47.02200000000001
 21
-96.53
  0
LINE
  5
11C
100
AcDbEntity
  8
0
  6
ByLayer
 62
  256
370
   -1
100
AcDbLine
 10
66.74550849718747
 20
-115.7394717418524
 11
67.09099999999999
 21
-116.215
  0
LINE
  5
11D
100
AcDbEntity
  8
0
  6
ByLayer
 62
  256
370
   -1
100
AcDbLine
 10
68.631
 20
-116.215
 11
68.72649150281252
 21
-115.9211073738538
  0
LINE
  5
11E
100
AcDbEntity
  8
0
  6
ByLayer
 62
  256
370
   -1
100
AcDbLine
 10
48.20011529493745
 20
-97.38595086466565
 11
47.19388470506255
 21
-97.05900672706322
  0
LINE
  5
11F
100
AcDbEntity
  8
0
  6
ByLayer
 62
  256
370
   -1
100
AcDbLine
 10
66.18649150281252
 20
-115.9211073738538
 11
66.74550849718747
 21
-115.7394717418524
  0
LINE
  5
120
100
AcDbEntity
  8
0
  6
ByLayer
 62
  256
370
   -1
100
AcDbLine
 10
64.20550849718749
 20
-115.7394717418524
 11
64.55100000000002
 21
-116.215
  0
LINE
  5
121
100
AcDbEntity
  8
0
  6
ByLayer
 62
  256
370
   -1
100
AcDbLine
 10
66.09099999999999
 20
-116.215
 11
66.18649150281252
 21
-115.9211073738538
  0
LINE
  5
122
100
AcDbEntity
  8
0
  6
ByLayer
 62
  256
370
   -1
100
AcDbLine
 10
63.64649150281254
 20
-115.9211073738538
 11
64.20550849718749
 21
-115.7394717418524
  0
LINE
  5
123
100
AcDbEntity
  8
0
  6
ByLayer
 62
  256
370
   -1
100
AcDbLine
 10
61.66550849718747
 20
-115.7394717418524
 11
62.011
 21
-116.215
  0
LINE
  5
124
100
AcDbEntity
  8
0
  6
ByLayer
 62
  256
370
   -1
100
AcDbLine
 10
63.55100000000002
 20
-116.215
 11
63.64649150281254
 21
-115.9211073738538
  0
LINE
  5
125
100
AcDbEntity
  8
0
  6
ByLayer
 62
  256
370
   -1
100
AcDbLine
 10
61.10649150281253
 20
-115.9211073738538
 11
61.66550849718747
 21
-115.7394717418524
  0
LINE
  5
126
100
AcDbEntity
  8
0
  6
ByLayer
 62
  256
370
   -1
100
AcDbLine
 10
59.12550849718748
 20
-115.7394717418524
 11
59.471
 21
-116.215
  0
LINE
  5
127
100
AcDbEntity
  8
0
  6
ByLayer
 62
  256
370
   -1
100
AcDbLine
 10
61.011
 20
-116.215
 11
61.10649150281253
 21
-115.9211073738538
  0
LINE
  5
128
100
AcDbEntity
  8
0
  6
ByLayer
 62
  256
370
   -1
100
AcDbLine
 10
58.56649150281253
 20
-115.9211073738538
 11
59.12550849718748
 21
-115.7394717418524
  0
LINE
  5
129
100
AcDbEntity
  8
0
  6
ByLayer
 62
  256
370
   -1
100
AcDbLine
 10
56.58550849718748
 20
-115.7394717418524
 11
56.931
 21
-116.215
  0
LINE
  5
12A
100
AcDbEntity
  8
0
  6
ByLayer
 62
  256
370
   -1
100
AcDbLine
 10
58.471
 20
-116.215
 11
58.56649150281253
 21
-115.9211073738538
  0
LINE
  5
12B
100
AcDbEntity
  8
0
  6
ByLayer
 62
  256
370
   -1
100
AcDbLine
 10
56.02649150281253
 20
-115.9211073738538
 11
56.58550849718748
 21
-115.7394717418524
  0
LINE
  5
12C
100
AcDbEntity
  8
0
  6
ByLayer
 62
  256
370
   -1
100
AcDbLine
 10
54.04550849718747
 20
-115.7394717418524
 11
54.391
 21
-116.215
  0
LINE
  5
12D
100
AcDbEntity
  8
0
  6
ByLayer
 62
  256
370
   -1
100
AcDbLine
 10
55.931
 20
-116.215
 11
56.02649150281253
 21
-115.9211073738538
  0
LINE
  5
12E
100
AcDbEntity
  8
0
  6
ByLayer
 62
  256
370
   -1
100
AcDbLine
 10
53.48649150281253
 20
-115.9211073738538
 11
54.04550849718747
 21
-115.7394717418524
  0
LINE
  5
12F
100
AcDbEntity
  8
0
  6
ByLayer
 62
  256
370
   -1
100
AcDbLine
 10
51.50550849718748
 20
-115.7394717418524
 11
51.85100000000001
 21
-116.215
  0
LINE
  5
130
100
AcDbEntity
  8
0
  6
ByLayer
 62
  256
370
   -1
100
AcDbLine
 10
53.391
 20
-116.215
 11
53.48649150281253
 21
-115.9211073738538
  0
LINE
  5
131
100
AcDbEntity
  8
0
  6
ByLayer
 62
  256
370
   -1
100
AcDbLine
 10
50.94649150281253
 20
-115.9211073738538
 11
51.50550849718748
 21
-115.7394717418524
  0
LINE
  5
132
100
AcDbEntity
  8
0
  6
ByLayer
 62
  256
370
   -1
100
AcDbLine
 10
48.96550849718747
 20
-115.7394717418524
 11
49.311
 21
-116.215
  0
LINE
  5
133
100
AcDbEntity
  8
0
  6
ByLayer
 62
  256
370
   -1
100
AcDbLine
 10
50.85100000000001
 20
-116.215
 11
50.94649150281253
 21
-115.9211073738538
  0
LINE
  5
134
100
AcDbEntity
  8
0
  6
ByLayer
 62
  256
370
   -1
100
AcDbLine
 10
48.40649150281253
 20
-115.9211073738538
 11
48.96550849718747
 21
-115.7394717418524
  0
LINE
  5
135
100
AcDbEntity
  8
0
  6
ByLayer
 62
  256
370
   -1
100
AcDbLine
 10
34.068
 20
-105.039
 11
34.23988470506255
 21
-104.5099932729368
  0
LINE
  5
136
100
AcDbEntity
  8
0
  6
ByLayer
 62
  256
370
   -1
100
AcDbLine
 10
34.23988470506255
 20
-105.5680067270632
 11
34.068
 21
-105.039
  0
LINE
  5
137
100
AcDbEntity
  8
0
  6
ByLayer
 62
  256
370
   -1
100
AcDbLine
 10
35.24611529493745
 20
-105.8949508646657
 11
34.23988470506255
 21
-105.5680067270632
  0
LINE
  5
138
100
AcDbEntity
  8
0
  6
ByLayer
 62
  256
370
   -1
100
AcDbLine
 10
48.311
 20
-116.215
 11
48.40649150281253
 21
-115.9211073738538
  0
LINE
  5
139
100
AcDbEntity
  8
0
  6
ByLayer
 62
  256
370
   -1
100
AcDbLine
 10
35.868
 20
-105.039
 11
35.24611529493745
 21
-105.8949508646657
  0
LINE
  5
13A
100
AcDbEntity
  8
0
  6
ByLayer
 62
  256
370
   -1
100
AcDbLine
 10
35.24611529493745
 20
-104.1830491353344
 11
35.868
 21
-105.039
  0
LINE
  5
13B
100
AcDbEntity
  8
0
  6
ByLayer
 62
  256
370
   -1
100
AcDbLine
 10
34.23988470506255
 20
-104.5099932729368
 11
35.24611529493745
 21
-104.1830491353344
  0
LINE
  5
13C
100
AcDbEntity
  8
0
  6
ByLayer
 62
  256
370
   -1
100
AcDbLine
 10
48.40649150281253
 20
-116.5088926261462
 11
48.311
 21
-116.215
  0
LINE
  5
13D
100
AcDbEntity
  8
0
  6
ByLayer
 62
  256
370
   -1
100
AcDbLine
 10
48.96550849718747
 20
-116.6905282581476
 11
48.40649150281253
 21
-116.5088926261462
  0
LINE
  5
13E
100
AcDbEntity
  8
0
  6
ByLayer
 62
  256
370
   -1
100
AcDbLine
 10
50.94649150281253
 20
-116.5088926261462
 11
50.85100000000001
 21
-116.215
  0
LINE
  5
13F
100
AcDbEntity
  8
0
  6
ByLayer
 62
  256
370
   -1
100
AcDbLine
 10
49.311
 20
-116.215
 11
48.96550849718747
 21
-116.6905282581476
  0
LINE
  5
140
100
AcDbEntity
  8
0
  6
ByLayer
 62
  256
370
   -1
100
AcDbLine
 10
51.50550849718748
 20
-116.6905282581476
 11
50.94649150281253
 21
-116.5088926261462
  0
LINE
  5
141
100
AcDbEntity
  8
0
  6
ByLayer
 62
  256
370
   -1
100
AcDbLine
 10
53.48649150281253
 20
-116.5088926261462
 11
53.391
 21
-116.215
  0
LINE
  5
142
100
AcDbEntity
  8
0
  6
ByLayer
 62
  256
370
   -1
100
AcDbLine
 10
51.85100000000001
 20
-116.215
 11
51.50550849718748
 21
-116.6905282581476
  0
LINE
  5
143
100
AcDbEntity
  8
0
  6
ByLayer
 62
  256
370
   -1
100
AcDbLine
 10
54.04550849718747
 20
-116.6905282581476
 11
53.48649150281253
 21
-116.5088926261462
  0
LINE
  5
144
100
AcDbEntity
  8
0
  6
ByLayer
 62
  256
370
   -1
100
AcDbLine
 10
56.02649150281253
 20
-116.5088926261462
 11
55.931
 21
-116.215
  0
LINE
  5
145
100
AcDbEntity
  8
0
  6
ByLayer
 62
  256
370
   -1
100
AcDbLine
 10
54.391
 20
-116.215
 11
54.04550849718747
 21
-116.6905282581476
  0
LINE
  5
146
100
AcDbEntity
  8
0
  6
ByLayer
 62
  256
370
   -1
100
AcDbLine
 10
56.58550849718748
 20
-116.6905282581476
 11
56.02649150281253
 21
-116.5088926261462
  0
LINE
  5
147
100
AcDbEntity
  8
0
  6
ByLayer
 62
  256
370
   -1
100
AcDbLine
 10
58.56649150281253
 20
-116.5088926261462
 11
58.471
 21
-116.215
  0
LINE
  5
148
100
AcDbEntity
  8
0
  6
ByLayer
 62
  256
370
   -1
100
AcDbLine
 10
56.931
 20
-116.215
 11
56.58550849718748
 21
-116.6905282581476
  0
LINE
  5
149
100
AcDbEntity
  8
0
  6
ByLayer
 62
  256
370
   -1
100
AcDbLine
 10
59.12550849718748
 20
-116.6905282581476
 11
58.56649150281253
 21
-116.5088926261462
  0
LINE
  5
14A
100
AcDbEntity
  8
0
  6
ByLayer
 62
  256
370
   -1
100
AcDbLine
 10
61.10649150281253
 20
-116.5088926261462
 11
61.011
 21
-116.215
  0
LINE
  5
14B
100
AcDbEntity
  8
0
  6
ByLayer
 62
  256
370
   -1
100
AcDbLine
 10
59.471
 20
-116.215
 11
59.12550849718748
 21
-116.6905282581476
  0
LINE
  5
14C
100
AcDbEntity
  8
0
  6
ByLayer
 62
  256
370
   -1
100
AcDbLine
 10
61.66550849718747
 20
-116.6905282581476
 11
61.10649150281253
 21
-116.5088926261462
  0
LINE
  5
14D
100
AcDbEntity
  8
0
  6
ByLayer
 62
  256
370
   -1
100
AcDbLine
 10
63.64649150281254
 20
-116.5088926261462
 11
63.55100000000002
 21
-116.215
  0
LINE
  5
14E
100
AcDbEntity
  8
0
  6
ByLayer
 62
  256
370
   -1
100
AcDbLine
 10
62.011
 20
-116.215
 11
61.66550849718747
 21
-116.6905282581476
  0
LINE
  5
14F
100
AcDbEntity
  8
0
  6
ByLayer
 62
  256
370
   -1
100
AcDbLine
 10
64.20550849718749
 20
-116.6905282581476
 11
63.64649150281254
 21
-116.5088926261462
  0
LINE
  5
150
100
AcDbEntity
  8
0
  6
ByLayer
 62
  256
370
   -1
100
AcDbLine
 10
66.18649150281252
 20
-116.5088926261462
 11
66.09099999999999
 21
-116.215
  0
LINE
  5
151
100
AcDbEntity
  8
0
  6
ByLayer
 62
  256
370
   -1
100
AcDbLine
 10
64.55100000000002
 20
-116.215
 11
64.20550849718749
 21
-116.6905282581476
  0
LINE
  5
152
100
AcDbEntity
  8
0
  6
ByLayer
 62
  256
370
   -1
100
AcDbLine
 10
66.74550849718747
 20
-116.6905282581476
 11
66.18649150281252
 21
-116.5088926261462
  0
LINE
  5
153
100
AcDbEntity
  8
0
  6
ByLayer
 62
  256
370
   -1
100
AcDbLine
 10
68.72649150281252
 20
-116.5088926261462
 11
68.631
 21
-116.215
  0
LINE
  5
154
100
AcDbEntity
  8
0
  6
ByLayer
 62
  256
370
   -1
100
AcDbLine
 10
67.09099999999999
 20
-116.215
 11
66.74550849718747
 21
-116.6905282581476
  0
LINE
  5
155
100
AcDbEntity
  8
0
  6
ByLayer
 62
  256
370
   -1
100
AcDbLine
 10
69.28550849718748
 20
-116.6905282581476
 11
68.72649150281252
 21
-116.5088926261462
  0
LINE
  5
156
100
AcDbEntity
  8
0
  6
ByLayer
 62
  256
370
   -1
100
AcDbLine
 10
71.26649150281254
 20
-116.5088926261462
 11
71.17100000000002
 21
-116.215
  0
LINE
  5
157
100
AcDbEntity
  8
0
  6
ByLayer
 62
  256
370
   -1
100
AcDbLine
 10
69.631
 20
-116.215
 11
69.28550849718748
 21
-116.6905282581476
  0
LINE
  5
158
100
AcDbEntity
  8
0
  6
ByLayer
 62
  256
370
   -1
100
AcDbLine
 10
71.8255084971875
 20
-116.6905282581476
 11
71.26649150281254
 21
-116.5088926261462
  0
LINE
  5
159
100
AcDbEntity
  8
0
  6
ByLayer
 62
  256
370
   -1
100
AcDbLine
 10
73.80649150281252
 20
-116.5088926261462
 11
73.711
 21
-116.215
  0
LINE
  5
15A
100
AcDbEntity
  8
0
  6
ByLayer
 62
  256
370
   -1
100
AcDbLine
 10
72.17100000000002
 20
-116.215
 11
71.8255084971875
 21
-116.6905282581476
  0
LINE
  5
15B
100
AcDbEntity
  8
0
  6
ByLayer
 62
  256
370
   -1
100
AcDbLine
 10
74.36550849718748
 20
-116.6905282581476
 11
73.80649150281252
 21
-116.5088926261462
  0
LINE
  5
15C
100
AcDbEntity
  8
0
  6
ByLayer
 62
  256
370
   -1
100
AcDbLine
 10
76.34649150281253
 20
-116.5088926261462
 11
76.251
 21
-116.215
  0
LINE
  5
15D
100
AcDbEntity
  8
0
  6
ByLayer
 62
  256
370
   -1
100
AcDbLine
 10
74.711
 20
-116.215
 11
74.36550849718748
 21
-116.6905282581476
  0
LINE
  5
15E
100
AcDbEntity
  8
0
  6
ByLayer
 62
  256
370
   -1
100
AcDbLine
 10
34.068
 20
-141.107
 11
34.23988470506255
 21
-140.5779932729368
  0
LINE
  5
15F
100
AcDbEntity
  8
0
  6
ByLayer
 62
  256
370
   -1
100
AcDbLine
 10
26.34380745694465
 20
-76.845
 11
26.34380745694465
 21
-170.698
  0
LINE
  5
160
100
AcDbEntity
  8
0
  6
ByLayer
 62
  256
370
   -1
100
AcDbLine
 10
34.23988470506255
 20
-141.6360067270633
 11
34.068
 21
-141.107
  0
LINE
  5
161
100
AcDbEntity
  8
0
  6
ByLayer
 62
  256
370
   -1
100
AcDbLine
 10
32.036
 20
-162.697
 11
32.20788470506255
 21
-162.1679932729368
  0
LINE
  5
162
100
AcDbEntity
  8
0
  6
ByLayer
 62
  256
370
   -1
100
AcDbLine
 10
32.20788470506255
 20
-163.2260067270632
 11
32.036
 21
-162.697
  0
LINE
  5
163
100
AcDbEntity
  8
0
  6
ByLayer
 62
  256
370
   -1
100
AcDbLine
 10
33.21411529493745
 20
-163.5529508646656
 11
32.20788470506255
 21
-163.2260067270632
  0
LINE
  5
164
100
AcDbEntity
  8
0
  6
ByLayer
 62
  256
370
   -1
100
AcDbLine
 10
40.037
 20
-165.237
 11
40.20888470506254
 21
-164.7079932729368
  0
LINE
  5
165
100
AcDbEntity
  8
0
  6
ByLayer
 62
  256
370
   -1
100
AcDbLine
 10
33.836
 20
-162.697
 11
33.21411529493745
 21
-163.5529508646656
  0
LINE
  5
166
100
AcDbEntity
  8
0
  6
ByLayer
 62
  256
370
   -1
100
AcDbLine
 10
40.20888470506254
 20
-165.7660067270633
 11
40.037
 21
-165.237
  0
LINE
  5
167
100
AcDbEntity
  8
0
  6
ByLayer
 62
  256
370
   -1
100
AcDbLine
 10
41.21511529493745
 20
-166.0929508646657
 11
40.20888470506254
 21
-165.7660067270633
  0
LINE
  5
168
100
AcDbEntity
  8
0
  6
ByLayer
 62
  256
370
   -1
100
AcDbLine
 10
82.24588470506256
 20
-165.7660067270633
 11
82.07400000000001
 21
-165.237
  0
LINE
  5
169
100
AcDbEntity
  8
0
  6
ByLayer
 62
  256
370
   -1
100
AcDbLine
 10
41.837
 20
-165.237
 11
41.21511529493745
 21
-166.0929508646657
  0
LINE
  5
16A
100
AcDbEntity
  8
0
  6
ByLayer
 62
  256
370
   -1
100
AcDbLine
 10
83.25211529493747
 20
-166.0929508646657
 11
82.24588470506256
 21
-165.7660067270633
  0
LINE
  5
16B
100
AcDbEntity
  8
0
  6
ByLayer
 62
  256
370
   -1
100
AcDbLine
 10
26.34380745694465
 20
-170.698
 11
95.8864081878633
 21
-170.698
  0
LINE
  5
16C
100
AcDbEntity
  8
0
  6
ByLayer
 62
  256
370
   -1
100
AcDbLine
 10
83.87400000000002
 20
-165.237
 11
83.25211529493747
 21
-166.0929508646657
  0
LINE
  5
16D
100
AcDbEntity
  8
0
  6
ByLayer
 62
  256
370
   -1
100
AcDbLine
 10
83.25211529493747
 20
-164.3810491353344
 11
83.87400000000002
 21
-165.237
  0
LINE
  5
16E
100
AcDbEntity
  8
0
  6
ByLayer
 62
  256
370
   -1
100
AcDbLine
 10
82.07400000000001
 20
-165.237
 11
82.24588470506256
 21
-164.7079932729368
  0
LINE
  5
16F
100
AcDbEntity
  8
0
  6
ByLayer
 62
  256
370
   -1
100
AcDbLine
 10
41.21511529493745
 20
-164.3810491353344
 11
41.837
 21
-165.237
  0
LINE
  5
170
100
AcDbEntity
  8
0
  6
ByLayer
 62
  256
370
   -1
100
AcDbLine
 10
33.21411529493745
 20
-161.8410491353344
 11
33.836
 21
-162.697
  0
LINE
  5
171
100
AcDbEntity
  8
0
  6
ByLayer
 62
  256
370
   -1
100
AcDbLine
 10
40.20888470506254
 20
-164.7079932729368
 11
41.21511529493745
 21
-164.3810491353344
  0
LINE
  5
172
100
AcDbEntity
  8
0
  6
ByLayer
 62
  256
370
   -1
100
AcDbLine
 10
32.20788470506255
 20
-162.1679932729368
 11
33.21411529493745
 21
-161.8410491353344
  0
LINE
  5
173
100
AcDbEntity
  8
0
  6
ByLayer
 62
  256
370
   -1
100
AcDbLine
 10
35.24611529493745
 20
-141.9629508646657
 11
34.23988470506255
 21
-141.6360067270633
  0
LINE
  5
174
100
AcDbEntity
  8
0
  6
ByLayer
 62
  256
370
   -1
100
AcDbLine
 10
70.90900000000002
 20
-149.398
 11
72.49999025766975
 21
-150.0570097423303
  0
LINE
  5
175
100
AcDbEntity
  8
0
  6
ByLayer
 62
  256
370
   -1
100
AcDbLine
 10
69.31800974233029
 20
-150.0570097423303
 11
70.90900000000002
 21
-149.398
  0
LINE
  5
176
100
AcDbEntity
  8
0
  6
ByLayer
 62
  256
370
   -1
100
AcDbLine
 10
68.65900000000002
 20
-151.648
 11
69.31800974233029
 21
-150.0570097423303
  0
LINE
  5
177
100
AcDbEntity
  8
0
  6
ByLayer
 62
  256
370
   -1
100
AcDbLine
 10
69.31800974233029
 20
-153.2389902576697
 11
68.65900000000002
 21
-151.648
  0
LINE
  5
178
100
AcDbEntity
  8
0
  6
ByLayer
 62
  256
370
   -1
100
AcDbLine
 10
35.868
 20
-141.107
 11
35.24611529493745
 21
-141.9629508646657
  0
LINE
  5
179
100
AcDbEntity
  8
0
  6
ByLayer
 62
  256
370
   -1
100
AcDbLine
 10
70.90900000000002
 20
-153.898
 11
69.31800974233029
 21
-153.2389902576697
  0
LINE
  5
17A
100
AcDbEntity
  8
0
  6
ByLayer
 62
  256
370
   -1
100
AcDbLine
 10
82.24588470506256
 20
-164.7079932729368
 11
83.25211529493747
 21
-164.3810491353344
  0
LINE
  5
17B
100
AcDbEntity
  8
0
  6
ByLayer
 62
  256
370
   -1
100
AcDbLine
 10
72.49999025766975
 20
-153.2389902576697
 11
70.90900000000002
 21
-153.898
  0
LINE
  5
17C
100
AcDbEntity
  8
0
  6
ByLayer
 62
  256
370
   -1
100
AcDbLine
 10
73.15900000000002
 20
-151.648
 11
72.49999025766975
 21
-153.2389902576697
  0
LINE
  5
17D
100
AcDbEntity
  8
0
  6
ByLayer
 62
  256
370
   -1
100
AcDbLine
 10
72.49999025766975
 20
-150.0570097423303
 11
73.15900000000002
 21
-151.648
  0
LINE
  5
17E
100
AcDbEntity
  8
0
  6
ByLayer
 62
  256
370
   -1
100
AcDbLine
 10
76.90550849718748
 20
-116.6905282581476
 11
76.34649150281253
 21
-116.5088926261462
  0
LINE
  5
17F
100
AcDbEntity
  8
0
  6
ByLayer
 62
  256
370
   -1
100
AcDbLine
 10
35.24611529493745
 20
-140.2510491353344
 11
35.868
 21
-141.107
  0
LINE
  5
180
100
AcDbEntity
  8
0
  6
ByLayer
 62
  256
370
   -1
100
AcDbLine
 10
34.23988470506255
 20
-140.5779932729368
 11
35.24611529493745
 21
-140.2510491353344
  0
LINE
  5
181
100
AcDbEntity
  8
0
  6
ByLayer
 62
  256
370
   -1
100
AcDbLine
 10
89.22111529493745
 20
-110.4669508646657
 11
88.21488470506254
 21
-110.1400067270632
  0
LINE
  5
182
100
AcDbEntity
  8
0
  6
ByLayer
 62
  256
370
   -1
100
AcDbLine
 10
77.251
 20
-116.215
 11
76.90550849718748
 21
-116.6905282581476
  0
LINE
  5
183
100
AcDbEntity
  8
0
  6
ByLayer
 62
  256
370
   -1
100
AcDbLine
 10
89.843
 20
-109.611
 11
89.22111529493745
 21
-110.4669508646657
  0
LINE
  5
184
100
AcDbEntity
  8
0
  6
ByLayer
 62
  256
370
   -1
100
AcDbLine
 10
88.04299999999999
 20
-145.679
 11
88.21488470506254
 21
-145.1499932729368
  0
LINE
  5
185
100
AcDbEntity
  8
0
  6
ByLayer
 62
  256
370
   -1
100
AcDbLine
 10
88.21488470506254
 20
-146.2080067270633
 11
88.04299999999999
 21
-145.679
  0
LINE
  5
186
100
AcDbEntity
  8
0
  6
ByLayer
 62
  256
370
   -1
100
AcDbLine
 10
90.07499999999999
 20
-162.697
 11
90.24688470506254
 21
-162.1679932729368
  0
LINE
  5
187
100
AcDbEntity
  8
0
  6
ByLayer
 62
  256
370
   -1
100
AcDbLine
 10
90.24688470506254
 20
-163.2260067270632
 11
90.07499999999999
 21
-162.697
  0
LINE
  5
188
100
AcDbEntity
  8
0
  6
ByLayer
 62
  256
370
   -1
100
AcDbLine
 10
91.25311529493744
 20
-163.5529508646656
 11
90.24688470506254
 21
-163.2260067270632
  0
LINE
  5
189
100
AcDbEntity
  8
0
  6
ByLayer
 62
  256
370
   -1
100
AcDbLine
 10
91.875
 20
-162.697
 11
91.25311529493744
 21
-163.5529508646656
  0
LINE
  5
18A
100
AcDbEntity
  8
0
  6
ByLayer
 62
  256
370
   -1
100
AcDbLine
 10
91.25311529493744
 20
-161.8410491353344
 11
91.875
 21
-162.697
  0
LINE
  5
18B
100
AcDbEntity
  8
0
  6
ByLayer
 62
  256
370
   -1
100
AcDbLine
 10
89.22111529493745
 20
-146.5349508646657
 11
88.21488470506254
 21
-146.2080067270633
  0
LINE
  5
18C
100
AcDbEntity
  8
0
  6
ByLayer
 62
  256
370
   -1
100
AcDbLine
 10
90.24688470506254
 20
-162.1679932729368
 11
91.25311529493744
 21
-161.8410491353344
  0
LINE
  5
18D
100
AcDbEntity
  8
0
  6
ByLayer
 62
  256
370
   -1
100
AcDbLine
 10
89.843
 20
-145.679
 11
89.22111529493745
 21
-146.5349508646657
  0
LINE
  5
18E
100
AcDbEntity
  8
0
  6
ByLayer
 62
  256
370
   -1
100
AcDbLine
 10
95.8864081878633
 20
-170.698
 11
95.8864081878633
 21
-76.845
  0
LINE
  5
18F
100
AcDbEntity
  8
0
  6
ByLayer
 62
  256
370
   -1
100
AcDbLine
 10
89.22111529493745
 20
-144.8230491353344
 11
89.843
 21
-145.679
  0
LINE
  5
190
100
AcDbEntity
  8
0
  6
ByLayer
 62
  256
370
   -1
100
AcDbLine
 10
88.21488470506254
 20
-145.1499932729368
 11
89.22111529493745
 21
-144.8230491353344
  0
LINE
  5
191
100
AcDbEntity
  8
0
  6
ByLayer
 62
  256
370
   -1
100
AcDbLine
 10
89.22111529493745
 20
-108.7550491353344
 11
89.843
 21
-109.611
  0
LINE
  5
192
100
AcDbEntity
  8
0
  6
ByLayer
 62
  256
370
   -1
100
AcDbLine
 10
88.21488470506254
 20
-109.0819932729368
 11
89.22111529493745
 21
-108.7550491353344
  0
LINE
  5
193
100
AcDbEntity
  8
0
  6
ByLayer
 62
  256
370
   -1
100
AcDbLine
 10
88.33211529493745
 20
-95.67404913533436
 11
88.95400000000001
 21
-96.53
  0
LINE
  5
194
100
AcDbEntity
  8
0
  6
ByLayer
 62
  256
370
   -1
100
AcDbLine
 10
87.32588470506255
 20
-96.00099327293678
 11
88.33211529493745
 21
-95.67404913533436
  0
LINE
  5
195
100
AcDbEntity
  8
0
  6
ByLayer
 62
  256
370
   -1
100
AcDbLine
 10
71.68575424859375
 20
-116.6451193501472
 11
71.26649150281254
 21
-116.5088926261462
  0
LINE
  5
196
100
AcDbEntity
  8
0
  6
ByLayer
 62
  256
370
   -1
100
AcDbLine
 10
71.26649150281254
 20
-116.5088926261462
 11
71.68575424859375
 21
-116.6451193501472
  0
LINE
  5
197
100
AcDbEntity
  8
0
  6
ByLayer
 62
  256
370
   -1
100
AcDbLine
 10
71.17100000000002
 20
-116.215
 11
71.17100000000002
 21
-116.215
  0
LINE
  5
198
100
AcDbEntity
  8
0
  6
ByLayer
 62
  256
370
   -1
100
AcDbLine
 10
71.17100000000002
 20
-116.215
 11
71.26649150281254
 21
-116.5088926261462
  0
LINE
  5
199
100
AcDbEntity
  8
0
  6
ByLayer
 62
  256
370
   -1
100
AcDbLine
 10
71.26649150281254
 20
-116.5088926261462
 11
71.17100000000002
 21
-116.215
  0
LINE
  5
19A
100
AcDbEntity
  8
0
  6
ByLayer
 62
  256
370
   -1
100
AcDbLine
 10
72.17100000000002
 20
-116.215
 11
72.17100000000002
 21
-116.215
  0
LINE
  5
19B
100
AcDbEntity
  8
0
  6
ByLayer
 62
  256
370
   -1
100
AcDbLine
 10
72.17100000000002
 20
-116.215
 11
71.8255084971875
 21
-116.6905282581476
  0
LINE
  5
19C
100
AcDbEntity
  8
0
  6
ByLayer
 62
  256
370
   -1
100
AcDbLine
 10
71.8255084971875
 20
-116.6905282581476
 11
72.17100000000002
 21
-116.215
  0
LINE
  5
19D
100
AcDbEntity
  8
0
  6
ByLayer
 62
  256
370
   -1
100
AcDbLine
 10
71.68575424859375
 20
-116.6451193501472
 11
71.8255084971875
 21
-116.6905282581476
  0
LINE
  5
19E
100
AcDbEntity
  8
0
  6
ByLayer
 62
  256
370
   -1
100
AcDbLine
 10
71.8255084971875
 20
-116.6905282581476
 11
71.68575424859375
 21
-116.6451193501472
  0
LINE
  5
19F
100
AcDbEntity
  8
0
  6
ByLayer
 62
  256
370
   -1
100
AcDbLine
 10
71.68575424859375
 20
-115.7848806498528
 11
71.8255084971875
 21
-115.7394717418524
  0
LINE
  5
1A0
100
AcDbEntity
  8
0
  6
ByLayer
 62
  256
370
   -1
100
AcDbLine
 10
71.8255084971875
 20
-115.7394717418524
 11
71.68575424859375
 21
-115.7848806498528
  0
LINE
  5
1A1
100
AcDbEntity
  8
0
  6
ByLayer
 62
  256
370
   -1
100
AcDbLine
 10
72.17100000000002
 20
-116.215
 11
72.17100000000002
 21
-116.215
  0
LINE
  5
1A2
100
AcDbEntity
  8
0
  6
ByLayer
 62
  256
370
   -1
100
AcDbLine
 10
72.17100000000002
 20
-116.215
 11
71.8255084971875
 21
-115.7394717418524
  0
LINE
  5
1A3
100
AcDbEntity
  8
0
  6
ByLayer
 62
  256
370
   -1
100
AcDbLine
 10
71.8255084971875
 20
-115.7394717418524
 11
72.17100000000002
 21
-116.215
  0
LINE
  5
1A4
100
AcDbEntity
  8
0
  6
ByLayer
 62
  256
370
   -1
100
AcDbLine
 10
71.17100000000002
 20
-116.215
 11
71.17100000000002
 21
-116.215
  0
LINE
  5
1A5
100
AcDbEntity
  8
0
  6
ByLayer
 62
  256
370
   -1
100
AcDbLine
 10
71.17100000000002
 20
-116.215
 11
71.26649150281254
 21
-115.9211073738538
  0
LINE
  5
1A6
100
AcDbEntity
  8
0
  6
ByLayer
 62
  256
370
   -1
100
AcDbLine
 10
71.26649150281254
 20
-115.9211073738538
 11
71.17100000000002
 21
-116.215
  0
LINE
  5
1A7
100
AcDbEntity
  8
0
  6
ByLayer
 62
  256
370
   -1
100
AcDbLine
 10
71.68575424859375
 20
-115.7848806498528
 11
71.26649150281254
 21
-115.9211073738538
  0
LINE
  5
1A8
100
AcDbEntity
  8
0
  6
ByLayer
 62
  256
370
   -1
100
AcDbLine
 10
71.26649150281254
 20
-115.9211073738538
 11
71.68575424859375
 21
-115.7848806498528
  0
LINE
  5
1A9
100
AcDbEntity
  8
0
  6
ByLayer
 62
  256
370
   -1
100
AcDbLine
 10
53.90575424859374
 20
-116.6451193501472
 11
53.48649150281253
 21
-116.5088926261462
  0
LINE
  5
1AA
100
AcDbEntity
  8
0
  6
ByLayer
 62
  256
370
   -1
100
AcDbLine
 10
53.48649150281253
 20
-116.5088926261462
 11
53.90575424859374
 21
-116.6451193501472
  0
LINE
  5
1AB
100
AcDbEntity
  8
0
  6
ByLayer
 62
  256
370
   -1
100
AcDbLine
 10
53.391
 20
-116.215
 11
53.391
 21
-116.215
  0
LINE
  5
1AC
100
AcDbEntity
  8
0
  6
ByLayer
 62
  256
370
   -1
100
AcDbLine
 10
53.391
 20
-116.215
 11
53.48649150281253
 21
-116.5088926261462
  0
LINE
  5
1AD
100
AcDbEntity
  8
0
  6
ByLayer
 62
  256
370
   -1
100
AcDbLine
 10
53.48649150281253
 20
-116.5088926261462
 11
53.391
 21
-116.215
  0
LINE
  5
1AE
100
AcDbEntity
  8
0
  6
ByLayer
 62
  256
370
   -1
100
AcDbLine
 10
54.391
 20
-116.215
 11
54.391
 21
-116.215
  0
LINE
  5
1AF
100
AcDbEntity
  8
0
  6
ByLayer
 62
  256
370
   -1
100
AcDbLine
 10
54.391
 20
-116.215
 11
54.04550849718747
 21
-116.6905282581476
  0
LINE
  5
1B0
100
AcDbEntity
  8
0
  6
ByLayer
 62
  256
370
   -1
100
AcDbLine
 10
54.04550849718747
 20
-116.6905282581476
 11
54.391
 21
-116.215
  0
LINE
  5
1B1
100
AcDbEntity
  8
0
  6
ByLayer
 62
  256
370
   -1
100
AcDbLine
 10
53.90575424859374
 20
-116.6451193501472
 11
54.04550849718747
 21
-116.6905282581476
  0
LINE
  5
1B2
100
AcDbEntity
  8
0
  6
ByLayer
 62
  256
370
   -1
100
AcDbLine
 10
54.04550849718747
 20
-116.6905282581476
 11
53.90575424859374
 21
-116.6451193501472
  0
LINE
  5
1B3
100
AcDbEntity
  8
0
  6
ByLayer
 62
  256
370
   -1
100
AcDbLine
 10
53.90575424859374
 20
-115.7848806498528
 11
54.04550849718747
 21
-115.7394717418524
  0
LINE
  5
1B4
100
AcDbEntity
  8
0
  6
ByLayer
 62
  256
370
   -1
100
AcDbLine
 10
54.04550849718747
 20
-115.7394717418524
 11
53.90575424859374
 21
-115.7848806498528
  0
LINE
  5
1B5
100
AcDbEntity
  8
0
  6
ByLayer
 62
  256
370
   -1
100
AcDbLine
 10
54.391
 20
-116.215
 11
54.391
 21
-116.215
  0
LINE
  5
1B6
100
AcDbEntity
  8
0
  6
ByLayer
 62
  256
370
   -1
100
AcDbLine
 10
54.391
 20
-116.215
 11
54.04550849718747
 21
-115.7394717418524
  0
LINE
  5
1B7
100
AcDbEntity
  8
0
  6
ByLayer
 62
  256
370
   -1
100
AcDbLine
 10
54.04550849718747
 20
-115.7394717418524
 11
54.391
 21
-116.215
  0
LINE
  5
1B8
100
AcDbEntity
  8
0
  6
ByLayer
 62
  256
370
   -1
100
AcDbLine
 10
53.391
 20
-116.215
 11
53.391
 21
-116.215
  0
LINE
  5
1B9
100
AcDbEntity
  8
0
  6
ByLayer
 62
  256
370
   -1
100
AcDbLine
 10
53.391
 20
-116.215
 11
53.48649150281253
 21
-115.9211073738538
  0
LINE
  5
1BA
100
AcDbEntity
  8
0
  6
ByLayer
 62
  256
370
   -1
100
AcDbLine
 10
53.48649150281253
 20
-115.9211073738538
 11
53.391
 21
-116.215
  0
LINE
  5
1BB
100
AcDbEntity
  8
0
  6
ByLayer
 62
  256
370
   -1
100
AcDbLine
 10
53.90575424859374
 20
-115.7848806498528
 11
53.48649150281253
 21
-115.9211073738538
  0
LINE
  5
1BC
100
AcDbEntity
  8
0
  6
ByLayer
 62
  256
370
   -1
100
AcDbLine
 10
53.48649150281253
 20
-115.9211073738538
 11
53.90575424859374
 21
-115.7848806498528
  0
LINE
  5
1BD
100
AcDbEntity
  8
0
  6
ByLayer
 62
  256
370
   -1
100
AcDbLine
 10
61.52575424859374
 20
-116.6451193501472
 11
61.10649150281253
 21
-116.5088926261462
  0
LINE
  5
1BE
100
AcDbEntity
  8
0
  6
ByLayer
 62
  256
370
   -1
100
AcDbLine
 10
61.10649150281253
 20
-116.5088926261462
 11
61.52575424859374
 21
-116.6451193501472
  0
LINE
  5
1BF
100
AcDbEntity
  8
0
  6
ByLayer
 62
  256
370
   -1
100
AcDbLine
 10
61.011
 20
-116.215
 11
61.011
 21
-116.215
  0
LINE
  5
1C0
100
AcDbEntity
  8
0
  6
ByLayer
 62
  256
370
   -1
100
AcDbLine
 10
61.011
 20
-116.215
 11
61.10649150281253
 21
-116.5088926261462
  0
LINE
  5
1C1
100
AcDbEntity
  8
0
  6
ByLayer
 62
  256
370
   -1
100
AcDbLine
 10
61.10649150281253
 20
-116.5088926261462
 11
61.011
 21
-116.215
  0
LINE
  5
1C2
100
AcDbEntity
  8
0
  6
ByLayer
 62
  256
370
   -1
100
AcDbLine
 10
62.011
 20
-116.215
 11
62.011
 21
-116.215
  0
LINE
  5
1C3
100
AcDbEntity
  8
0
  6
ByLayer
 62
  256
370
   -1
100
AcDbLine
 10
62.011
 20
-116.215
 11
61.66550849718747
 21
-116.6905282581476
  0
LINE
  5
1C4
100
AcDbEntity
  8
0
  6
ByLayer
 62
  256
370
   -1
100
AcDbLine
 10
61.66550849718747
 20
-116.6905282581476
 11
62.011
 21
-116.215
  0
LINE
  5
1C5
100
AcDbEntity
  8
0
  6
ByLayer
 62
  256
370
   -1
100
AcDbLine
 10
61.52575424859374
 20
-116.6451193501472
 11
61.66550849718747
 21
-116.6905282581476
  0
LINE
  5
1C6
100
AcDbEntity
  8
0
  6
ByLayer
 62
  256
370
   -1
100
AcDbLine
 10
61.66550849718747
 20
-116.6905282581476
 11
61.52575424859374
 21
-116.6451193501472
  0
LINE
  5
1C7
100
AcDbEntity
  8
0
  6
ByLayer
 62
  256
370
   -1
100
AcDbLine
 10
61.52575424859374
 20
-115.7848806498528
 11
61.66550849718747
 21
-115.7394717418524
  0
LINE
  5
1C8
100
AcDbEntity
  8
0
  6
ByLayer
 62
  256
370
   -1
100
AcDbLine
 10
61.66550849718747
 20
-115.7394717418524
 11
61.52575424859374
 21
-115.7848806498528
  0
LINE
  5
1C9
100
AcDbEntity
  8
0
  6
ByLayer
 62
  256
370
   -1
100
AcDbLine
 10
62.011
 20
-116.215
 11
62.011
 21
-116.215
  0
LINE
  5
1CA
100
AcDbEntity
  8
0
  6
ByLayer
 62
  256
370
   -1
100
AcDbLine
 10
62.011
 20
-116.215
 11
61.66550849718747
 21
-115.7394717418524
  0
LINE
  5
1CB
100
AcDbEntity
  8
0
  6
ByLayer
 62
  256
370
   -1
100
AcDbLine
 10
61.66550849718747
 20
-115.7394717418524
 11
62.011
 21
-116.215
  0
LINE
  5
1CC
100
AcDbEntity
  8
0
  6
ByLayer
 62
  256
370
   -1
100
AcDbLine
 10
61.011
 20
-116.215
 11
61.011
 21
-116.215
  0
LINE
  5
1CD
100
AcDbEntity
  8
0
  6
ByLayer
 62
  256
370
   -1
100
AcDbLine
 10
61.011
 20
-116.215
 11
61.10649150281253
 21
-115.9211073738538
  0
LINE
  5
1CE
100
AcDbEntity
  8
0
  6
ByLayer
 62
  256
370
   -1
100
AcDbLine
 10
61.10649150281253
 20
-115.9211073738538
 11
61.011
 21
-116.215
  0
LINE
  5
1CF
100
AcDbEntity
  8
0
  6
ByLayer
 62
  256
370
   -1
100
AcDbLine
 10
61.52575424859374
 20
-115.7848806498528
 11
61.10649150281253
 21
-115.9211073738538
  0
LINE
  5
1D0
100
AcDbEntity
  8
0
  6
ByLayer
 62
  256
370
   -1
100
AcDbLine
 10
61.10649150281253
 20
-115.9211073738538
 11
61.52575424859374
 21
-115.7848806498528
  0
LINE
  5
1D1
100
AcDbEntity
  8
0
  6
ByLayer
 62
  256
370
   -1
100
AcDbLine
 10
48.82575424859374
 20
-116.6451193501472
 11
48.40649150281253
 21
-116.5088926261462
  0
LINE
  5
1D2
100
AcDbEntity
  8
0
  6
ByLayer
 62
  256
370
   -1
100
AcDbLine
 10
48.40649150281253
 20
-116.5088926261462
 11
48.82575424859374
 21
-116.6451193501472
  0
LINE
  5
1D3
100
AcDbEntity
  8
0
  6
ByLayer
 62
  256
370
   -1
100
AcDbLine
 10
48.311
 20
-116.215
 11
48.311
 21
-116.215
  0
LINE
  5
1D4
100
AcDbEntity
  8
0
  6
ByLayer
 62
  256
370
   -1
100
AcDbLine
 10
48.311
 20
-116.215
 11
48.40649150281253
 21
-116.5088926261462
  0
LINE
  5
1D5
100
AcDbEntity
  8
0
  6
ByLayer
 62
  256
370
   -1
100
AcDbLine
 10
48.40649150281253
 20
-116.5088926261462
 11
48.311
 21
-116.215
  0
LINE
  5
1D6
100
AcDbEntity
  8
0
  6
ByLayer
 62
  256
370
   -1
100
AcDbLine
 10
49.311
 20
-116.215
 11
49.311
 21
-116.215
  0
LINE
  5
1D7
100
AcDbEntity
  8
0
  6
ByLayer
 62
  256
370
   -1
100
AcDbLine
 10
49.311
 20
-116.215
 11
48.96550849718747
 21
-116.6905282581476
  0
LINE
  5
1D8
100
AcDbEntity
  8
0
  6
ByLayer
 62
  256
370
   -1
100
AcDbLine
 10
48.96550849718747
 20
-116.6905282581476
 11
49.311
 21
-116.215
  0
LINE
  5
1D9
100
AcDbEntity
  8
0
  6
ByLayer
 62
  256
370
   -1
100
AcDbLine
 10
48.82575424859374
 20
-116.6451193501472
 11
48.96550849718747
 21
-116.6905282581476
  0
LINE
  5
1DA
100
AcDbEntity
  8
0
  6
ByLayer
 62
  256
370
   -1
100
AcDbLine
 10
48.96550849718747
 20
-116.6905282581476
 11
48.82575424859374
 21
-116.6451193501472
  0
LINE
  5
1DB
100
AcDbEntity
  8
0
  6
ByLayer
 62
  256
370
   -1
100
AcDbLine
 10
48.82575424859374
 20
-115.7848806498528
 11
48.96550849718747
 21
-115.7394717418524
  0
LINE
  5
1DC
100
AcDbEntity
  8
0
  6
ByLayer
 62
  256
370
   -1
100
AcDbLine
 10
48.96550849718747
 20
-115.7394717418524
 11
48.82575424859374
 21
-115.7848806498528
  0
LINE
  5
1DD
100
AcDbEntity
  8
0
  6
ByLayer
 62
  256
370
   -1
100
AcDbLine
 10
49.311
 20
-116.215
 11
49.311
 21
-116.215
  0
LINE
  5
1DE
100
AcDbEntity
  8
0
  6
ByLayer
 62
  256
370
   -1
100
AcDbLine
 10
49.311
 20
-116.215
 11
48.96550849718747
 21
-115.7394717418524
  0
LINE
  5
1DF
100
AcDbEntity
  8
0
  6
ByLayer
 62
  256
370
   -1
100
AcDbLine
 10
48.96550849718747
 20
-115.7394717418524
 11
49.311
 21
-116.215
  0
LINE
  5
1E0
100
AcDbEntity
  8
0
  6
ByLayer
 62
  256
370
   -1
100
AcDbLine
 10
48.311
 20
-116.215
 11
48.311
 21
-116.215
  0
LINE
  5
1E1
100
AcDbEntity
  8
0
  6
ByLayer
 62
  256
370
   -1
100
AcDbLine
 10
48.311
 20
-116.215
 11
48.40649150281253
 21
-115.9211073738538
  0
LINE
  5
1E2
100
AcDbEntity
  8
0
  6
ByLayer
 62
  256
370
   -1
100
AcDbLine
 10
48.40649150281253
 20
-115.9211073738538
 11
48.311
 21
-116.215
  0
LINE
  5
1E3
100
AcDbEntity
  8
0
  6
ByLayer
 62
  256
370
   -1
100
AcDbLine
 10
48.82575424859374
 20
-115.7848806498528
 11
48.40649150281253
 21
-115.9211073738538
  0
LINE
  5
1E4
100
AcDbEntity
  8
0
  6
ByLayer
 62
  256
370
   -1
100
AcDbLine
 10
48.40649150281253
 20
-115.9211073738538
 11
48.82575424859374
 21
-115.7848806498528
  0
LINE
  5
1E5
100
AcDbEntity
  8
0
  6
ByLayer
 62
  256
370
   -1
100
AcDbLine
 10
44.874
 20
-87.22300000000001
 11
44.874
 21
-87.22300000000001
  0
LINE
  5
1E6
100
AcDbEntity
  8
0
  6
ByLayer
 62
  256
370
   -1
100
AcDbLine
 10
44.874
 20
-87.22300000000001
 11
43.28300974233027
 21
-86.56399025766974
  0
LINE
  5
1E7
100
AcDbEntity
  8
0
  6
ByLayer
 62
  256
370
   -1
100
AcDbLine
 10
43.28300974233027
 20
-86.56399025766974
 11
44.874
 21
-87.22300000000001
  0
LINE
  5
1E8
100
AcDbEntity
  8
0
  6
ByLayer
 62
  256
370
   -1
100
AcDbLine
 10
42.624
 20
-84.97300000000001
 11
42.624
 21
-84.97300000000001
  0
LINE
  5
1E9
100
AcDbEntity
  8
0
  6
ByLayer
 62
  256
370
   -1
100
AcDbLine
 10
42.624
 20
-84.97300000000001
 11
43.28300974233027
 21
-86.56399025766974
  0
LINE
  5
1EA
100
AcDbEntity
  8
0
  6
ByLayer
 62
  256
370
   -1
100
AcDbLine
 10
43.28300974233027
 20
-86.56399025766974
 11
42.624
 21
-84.97300000000001
  0
LINE
  5
1EB
100
AcDbEntity
  8
0
  6
ByLayer
 62
  256
370
   -1
100
AcDbLine
 10
47.124
 20
-84.97300000000001
 11
47.124
 21
-84.97300000000001
  0
LINE
  5
1EC
100
AcDbEntity
  8
0
  6
ByLayer
 62
  256
370
   -1
100
AcDbLine
 10
47.124
 20
-84.97300000000001
 11
46.46499025766973
 21
-86.56399025766974
  0
LINE
  5
1ED
100
AcDbEntity
  8
0
  6
ByLayer
 62
  256
370
   -1
100
AcDbLine
 10
46.46499025766973
 20
-86.56399025766974
 11
47.124
 21
-84.97300000000001
  0
LINE
  5
1EE
100
AcDbEntity
  8
0
  6
ByLayer
 62
  256
370
   -1
100
AcDbLine
 10
44.874
 20
-87.22300000000001
 11
44.874
 21
-87.22300000000001
  0
LINE
  5
1EF
100
AcDbEntity
  8
0
  6
ByLayer
 62
  256
370
   -1
100
AcDbLine
 10
44.874
 20
-87.22300000000001
 11
46.46499025766973
 21
-86.56399025766974
  0
LINE
  5
1F0
100
AcDbEntity
  8
0
  6
ByLayer
 62
  256
370
   -1
100
AcDbLine
 10
46.46499025766973
 20
-86.56399025766974
 11
44.874
 21
-87.22300000000001
  0
LINE
  5
1F1
100
AcDbEntity
  8
0
  6
ByLayer
 62
  256
370
   -1
100
AcDbLine
 10
44.874
 20
-82.72300000000001
 11
44.874
 21
-82.72300000000001
  0
LINE
  5
1F2
100
AcDbEntity
  8
0
  6
ByLayer
 62
  256
370
   -1
100
AcDbLine
 10
44.874
 20
-82.72300000000001
 11
46.46499025766973
 21
-83.38200974233028
  0
LINE
  5
1F3
100
AcDbEntity
  8
0
  6
ByLayer
 62
  256
370
   -1
100
AcDbLine
 10
46.46499025766973
 20
-83.38200974233028
 11
44.874
 21
-82.72300000000001
  0
LINE
  5
1F4
100
AcDbEntity
  8
0
  6
ByLayer
 62
  256
370
   -1
100
AcDbLine
 10
47.124
 20
-84.97300000000001
 11
47.124
 21
-84.97300000000001
  0
LINE
  5
1F5
100
AcDbEntity
  8
0
  6
ByLayer
 62
  256
370
   -1
100
AcDbLine
 10
47.124
 20
-84.97300000000001
 11
46.46499025766973
 21
-83.38200974233028
  0
LINE
  5
1F6
100
AcDbEntity
  8
0
  6
ByLayer
 62
  256
370
   -1
100
AcDbLine
 10
46.46499025766973
 20
-83.38200974233028
 11
47.124
 21
-84.97300000000001
  0
LINE
  5
1F7
100
AcDbEntity
  8
0
  6
ByLayer
 62
  256
370
   -1
100
AcDbLine
 10
42.624
 20
-84.97300000000001
 11
42.624
 21
-84.97300000000001
  0
LINE
  5
1F8
100
AcDbEntity
  8
0
  6
ByLayer
 62
  256
370
   -1
100
AcDbLine
 10
42.624
 20
-84.97300000000001
 11
43.28300974233027
 21
-83.38200974233028
  0
LINE
  5
1F9
100
AcDbEntity
  8
0
  6
ByLayer
 62
  256
370
   -1
100
AcDbLine
 10
43.28300974233027
 20
-83.38200974233028
 11
42.624
 21
-84.97300000000001
  0
LINE
  5
1FA
100
AcDbEntity
  8
0
  6
ByLayer
 62
  256
370
   -1
100
AcDbLine
 10
44.874
 20
-82.72300000000001
 11
44.874
 21
-82.72300000000001
  0
LINE
  5
1FB
100
AcDbEntity
  8
0
  6
ByLayer
 62
  256
370
   -1
100
AcDbLine
 10
44.874
 20
-82.72300000000001
 11
43.28300974233027
 21
-83.38200974233028
  0
LINE
  5
1FC
100
AcDbEntity
  8
0
  6
ByLayer
 62
  256
370
   -1
100
AcDbLine
 10
43.28300974233027
 20
-83.38200974233028
 11
44.874
 21
-82.72300000000001
  0
LINE
  5
1FD
100
AcDbEntity
  8
0
  6
ByLayer
 62
  256
370
   -1
100
AcDbLine
 10
47.94855764746873
 20
-97.30421483026504
 11
47.19388470506255
 21
-97.05900672706322
  0
LINE
  5
1FE
100
AcDbEntity
  8
0
  6
ByLayer
 62
  256
370
   -1
100
AcDbLine
 10
47.19388470506255
 20
-97.05900672706322
 11
47.94855764746873
 21
-97.30421483026504
  0
LINE
  5
1FF
100
AcDbEntity
  8
0
  6
ByLayer
 62
  256
370
   -1
100
AcDbLine
 10
47.02200000000001
 20
-96.53
 11
47.02200000000001
 21
-96.53
  0
LINE
  5
200
100
AcDbEntity
  8
0
  6
ByLayer
 62
  256
370
   -1
100
AcDbLine
 10
47.02200000000001
 20
-96.53
 11
47.19388470506255
 21
-97.05900672706322
  0
LINE
  5
201
100
AcDbEntity
  8
0
  6
ByLayer
 62
  256
370
   -1
100
AcDbLine
 10
47.19388470506255
 20
-97.05900672706322
 11
47.02200000000001
 21
-96.53
  0
LINE
  5
202
100
AcDbEntity
  8
0
  6
ByLayer
 62
  256
370
   -1
100
AcDbLine
 10
48.822
 20
-96.53
 11
48.822
 21
-96.53
  0
LINE
  5
203
100
AcDbEntity
  8
0
  6
ByLayer
 62
  256
370
   -1
100
AcDbLine
 10
48.822
 20
-96.53
 11
48.20011529493745
 21
-97.38595086466565
  0
LINE
  5
204
100
AcDbEntity
  8
0
  6
ByLayer
 62
  256
370
   -1
100
AcDbLine
 10
48.20011529493745
 20
-97.38595086466565
 11
48.822
 21
-96.53
  0
LINE
  5
205
100
AcDbEntity
  8
0
  6
ByLayer
 62
  256
370
   -1
100
AcDbLine
 10
47.94855764746873
 20
-97.30421483026504
 11
48.20011529493745
 21
-97.38595086466565
  0
LINE
  5
206
100
AcDbEntity
  8
0
  6
ByLayer
 62
  256
370
   -1
100
AcDbLine
 10
48.20011529493745
 20
-97.38595086466565
 11
47.94855764746873
 21
-97.30421483026504
  0
LINE
  5
207
100
AcDbEntity
  8
0
  6
ByLayer
 62
  256
370
   -1
100
AcDbLine
 10
47.94855764746873
 20
-95.75578516973496
 11
48.20011529493745
 21
-95.67404913533436
  0
LINE
  5
208
100
AcDbEntity
  8
0
  6
ByLayer
 62
  256
370
   -1
100
AcDbLine
 10
48.20011529493745
 20
-95.67404913533436
 11
47.94855764746873
 21
-95.75578516973496
  0
LINE
  5
209
100
AcDbEntity
  8
0
  6
ByLayer
 62
  256
370
   -1
100
AcDbLine
 10
48.822
 20
-96.53
 11
48.822
 21
-96.53
  0
LINE
  5
20A
100
AcDbEntity
  8
0
  6
ByLayer
 62
  256
370
   -1
100
AcDbLine
 10
48.822
 20
-96.53
 11
48.20011529493745
 21
-95.67404913533436
  0
LINE
  5
20B
100
AcDbEntity
  8
0
  6
ByLayer
 62
  256
370
   -1
100
AcDbLine
 10
48.20011529493745
 20
-95.67404913533436
 11
48.822
 21
-96.53
  0
LINE
  5
20C
100
AcDbEntity
  8
0
  6
ByLayer
 62
  256
370
   -1
100
AcDbLine
 10
47.02200000000001
 20
-96.53
 11
47.02200000000001
 21
-96.53
  0
LINE
  5
20D
100
AcDbEntity
  8
0
  6
ByLayer
 62
  256
370
   -1
100
AcDbLine
 10
47.02200000000001
 20
-96.53
 11
47.19388470506255
 21
-96.00099327293678
  0
LINE
  5
20E
100
AcDbEntity
  8
0
  6
ByLayer
 62
  256
370
   -1
100
AcDbLine
 10
47.19388470506255
 20
-96.00099327293678
 11
47.02200000000001
 21
-96.53
  0
LINE
  5
20F
100
AcDbEntity
  8
0
  6
ByLayer
 62
  256
370
   -1
100
AcDbLine
 10
47.94855764746873
 20
-95.75578516973496
 11
47.19388470506255
 21
-96.00099327293678
  0
LINE
  5
210
100
AcDbEntity
  8
0
  6
ByLayer
 62
  256
370
   -1
100
AcDbLine
 10
47.19388470506255
 20
-96.00099327293678
 11
47.94855764746873
 21
-95.75578516973496
  0
LINE
  5
211
100
AcDbEntity
  8
0
  6
ByLayer
 62
  256
370
   -1
100
AcDbLine
 10
74.22575424859373
 20
-116.6451193501472
 11
73.80649150281252
 21
-116.5088926261462
  0
LINE
  5
212
100
AcDbEntity
  8
0
  6
ByLayer
 62
  256
370
   -1
100
AcDbLine
 10
73.80649150281252
 20
-116.5088926261462
 11
74.22575424859373
 21
-116.6451193501472
  0
LINE
  5
213
100
AcDbEntity
  8
0
  6
ByLayer
 62
  256
370
   -1
100
AcDbLine
 10
73.711
 20
-116.215
 11
73.711
 21
-116.215
  0
LINE
  5
214
100
AcDbEntity
  8
0
  6
ByLayer
 62
  256
370
   -1
100
AcDbLine
 10
73.711
 20
-116.215
 11
73.80649150281252
 21
-116.5088926261462
  0
LINE
  5
215
100
AcDbEntity
  8
0
  6
ByLayer
 62
  256
370
   -1
100
AcDbLine
 10
73.80649150281252
 20
-116.5088926261462
 11
73.711
 21
-116.215
  0
LINE
  5
216
100
AcDbEntity
  8
0
  6
ByLayer
 62
  256
370
   -1
100
AcDbLine
 10
74.711
 20
-116.215
 11
74.711
 21
-116.215
  0
LINE
  5
217
100
AcDbEntity
  8
0
  6
ByLayer
 62
  256
370
   -1
100
AcDbLine
 10
74.711
 20
-116.215
 11
74.36550849718748
 21
-116.6905282581476
  0
LINE
  5
218
100
AcDbEntity
  8
0
  6
ByLayer
 62
  256
370
   -1
100
AcDbLine
 10
74.36550849718748
 20
-116.6905282581476
 11
74.711
 21
-116.215
  0
LINE
  5
219
100
AcDbEntity
  8
0
  6
ByLayer
 62
  256
370
   -1
100
AcDbLine
 10
74.22575424859373
 20
-116.6451193501472
 11
74.36550849718748
 21
-116.6905282581476
  0
LINE
  5
21A
100
AcDbEntity
  8
0
  6
ByLayer
 62
  256
370
   -1
100
AcDbLine
 10
74.36550849718748
 20
-116.6905282581476
 11
74.22575424859373
 21
-116.6451193501472
  0
LINE
  5
21B
100
AcDbEntity
  8
0
  6
ByLayer
 62
  256
370
   -1
100
AcDbLine
 10
74.22575424859373
 20
-115.7848806498528
 11
74.36550849718748
 21
-115.7394717418524
  0
LINE
  5
21C
100
AcDbEntity
  8
0
  6
ByLayer
 62
  256
370
   -1
100
AcDbLine
 10
74.36550849718748
 20
-115.7394717418524
 11
74.22575424859373
 21
-115.7848806498528
  0
LINE
  5
21D
100
AcDbEntity
  8
0
  6
ByLayer
 62
  256
370
   -1
100
AcDbLine
 10
74.711
 20
-116.215
 11
74.711
 21
-116.215
  0
LINE
  5
21E
100
AcDbEntity
  8
0
  6
ByLayer
 62
  256
370
   -1
100
AcDbLine
 10
74.711
 20
-116.215
 11
74.36550849718748
 21
-115.7394717418524
  0
LINE
  5
21F
100
AcDbEntity
  8
0
  6
ByLayer
 62
  256
370
   -1
100
AcDbLine
 10
74.36550849718748
 20
-115.7394717418524
 11
74.711
 21
-116.215
  0
LINE
  5
220
100
AcDbEntity
  8
0
  6
ByLayer
 62
  256
370
   -1
100
AcDbLine
 10
73.711
 20
-116.215
 11
73.711
 21
-116.215
  0
LINE
  5
221
100
AcDbEntity
  8
0
  6
ByLayer
 62
  256
370
   -1
100
AcDbLine
 10
73.711
 20
-116.215
 11
73.80649150281252
 21
-115.9211073738538
  0
LINE
  5
222
100
AcDbEntity
  8
0
  6
ByLayer
 62
  256
370
   -1
100
AcDbLine
 10
73.80649150281252
 20
-115.9211073738538
 11
73.711
 21
-116.215
  0
LINE
  5
223
100
AcDbEntity
  8
0
  6
ByLayer
 62
  256
370
   -1
100
AcDbLine
 10
74.22575424859373
 20
-115.7848806498528
 11
73.80649150281252
 21
-115.9211073738538
  0
LINE
  5
224
100
AcDbEntity
  8
0
  6
ByLayer
 62
  256
370
   -1
100
AcDbLine
 10
73.80649150281252
 20
-115.9211073738538
 11
74.22575424859373
 21
-115.7848806498528
  0
LINE
  5
225
100
AcDbEntity
  8
0
  6
ByLayer
 62
  256
370
   -1
100
AcDbLine
 10
88.96955764746873
 20
-110.3852148302651
 11
88.21488470506254
 21
-110.1400067270632
  0
LINE
  5
226
100
AcDbEntity
  8
0
  6
ByLayer
 62
  256
370
   -1
100
AcDbLine
 10
88.21488470506254
 20
-110.1400067270632
 11
88.96955764746873
 21
-110.3852148302651
  0
LINE
  5
227
100
AcDbEntity
  8
0
  6
ByLayer
 62
  256
370
   -1
100
AcDbLine
 10
88.04299999999999
 20
-109.611
 11
88.04299999999999
 21
-109.611
  0
LINE
  5
228
100
AcDbEntity
  8
0
  6
ByLayer
 62
  256
370
   -1
100
AcDbLine
 10
88.04299999999999
 20
-109.611
 11
88.21488470506254
 21
-110.1400067270632
  0
LINE
  5
229
100
AcDbEntity
  8
0
  6
ByLayer
 62
  256
370
   -1
100
AcDbLine
 10
88.21488470506254
 20
-110.1400067270632
 11
88.04299999999999
 21
-109.611
  0
LINE
  5
22A
100
AcDbEntity
  8
0
  6
ByLayer
 62
  256
370
   -1
100
AcDbLine
 10
89.843
 20
-109.611
 11
89.843
 21
-109.611
  0
LINE
  5
22B
100
AcDbEntity
  8
0
  6
ByLayer
 62
  256
370
   -1
100
AcDbLine
 10
89.843
 20
-109.611
 11
89.22111529493745
 21
-110.4669508646657
  0
LINE
  5
22C
100
AcDbEntity
  8
0
  6
ByLayer
 62
  256
370
   -1
100
AcDbLine
 10
89.22111529493745
 20
-110.4669508646657
 11
89.843
 21
-109.611
  0
LINE
  5
22D
100
AcDbEntity
  8
0
  6
ByLayer
 62
  256
370
   -1
100
AcDbLine
 10
88.96955764746873
 20
-110.3852148302651
 11
89.22111529493745
 21
-110.4669508646657
  0
LINE
  5
22E
100
AcDbEntity
  8
0
  6
ByLayer
 62
  256
370
   -1
100
AcDbLine
 10
89.22111529493745
 20
-110.4669508646657
 11
88.96955764746873
 21
-110.3852148302651
  0
LINE
  5
22F
100
AcDbEntity
  8
0
  6
ByLayer
 62
  256
370
   -1
100
AcDbLine
 10
88.96955764746873
 20
-108.836785169735
 11
89.22111529493745
 21
-108.7550491353344
  0
LINE
  5
230
100
AcDbEntity
  8
0
  6
ByLayer
 62
  256
370
   -1
100
AcDbLine
 10
89.22111529493745
 20
-108.7550491353344
 11
88.96955764746873
 21
-108.836785169735
  0
LINE
  5
231
100
AcDbEntity
  8
0
  6
ByLayer
 62
  256
370
   -1
100
AcDbLine
 10
89.843
 20
-109.611
 11
89.843
 21
-109.611
  0
LINE
  5
232
100
AcDbEntity
  8
0
  6
ByLayer
 62
  256
370
   -1
100
AcDbLine
 10
89.843
 20
-109.611
 11
89.22111529493745
 21
-108.7550491353344
  0
LINE
  5
233
100
AcDbEntity
  8
0
  6
ByLayer
 62
  256
370
   -1
100
AcDbLine
 10
89.22111529493745
 20
-108.7550491353344
 11
89.843
 21
-109.611
  0
LINE
  5
234
100
AcDbEntity
  8
0
  6
ByLayer
 62
  256
370
   -1
100
AcDbLine
 10
88.04299999999999
 20
-109.611
 11
88.04299999999999
 21
-109.611
  0
LINE
  5
235
100
AcDbEntity
  8
0
  6
ByLayer
 62
  256
370
   -1
100
AcDbLine
 10
88.04299999999999
 20
-109.611
 11
88.21488470506254
 21
-109.0819932729368
  0
LINE
  5
236
100
AcDbEntity
  8
0
  6
ByLayer
 62
  256
370
   -1
100
AcDbLine
 10
88.21488470506254
 20
-109.0819932729368
 11
88.04299999999999
 21
-109.611
  0
LINE
  5
237
100
AcDbEntity
  8
0
  6
ByLayer
 62
  256
370
   -1
100
AcDbLine
 10
88.96955764746873
 20
-108.836785169735
 11
88.21488470506254
 21
-109.0819932729368
  0
LINE
  5
238
100
AcDbEntity
  8
0
  6
ByLayer
 62
  256
370
   -1
100
AcDbLine
 10
88.21488470506254
 20
-109.0819932729368
 11
88.96955764746873
 21
-108.836785169735
  0
LINE
  5
239
100
AcDbEntity
  8
0
  6
ByLayer
 62
  256
370
   -1
100
AcDbLine
 10
88.08055764746874
 20
-97.30421483026504
 11
87.32588470506255
 21
-97.05900672706322
  0
LINE
  5
23A
100
AcDbEntity
  8
0
  6
ByLayer
 62
  256
370
   -1
100
AcDbLine
 10
87.32588470506255
 20
-97.05900672706322
 11
88.08055764746874
 21
-97.30421483026504
  0
LINE
  5
23B
100
AcDbEntity
  8
0
  6
ByLayer
 62
  256
370
   -1
100
AcDbLine
 10
87.154
 20
-96.53
 11
87.154
 21
-96.53
  0
LINE
  5
23C
100
AcDbEntity
  8
0
  6
ByLayer
 62
  256
370
   -1
100
AcDbLine
 10
87.154
 20
-96.53
 11
87.32588470506255
 21
-97.05900672706322
  0
LINE
  5
23D
100
AcDbEntity
  8
0
  6
ByLayer
 62
  256
370
   -1
100
AcDbLine
 10
87.32588470506255
 20
-97.05900672706322
 11
87.154
 21
-96.53
  0
LINE
  5
23E
100
AcDbEntity
  8
0
  6
ByLayer
 62
  256
370
   -1
100
AcDbLine
 10
88.95400000000001
 20
-96.53
 11
88.95400000000001
 21
-96.53
  0
LINE
  5
23F
100
AcDbEntity
  8
0
  6
ByLayer
 62
  256
370
   -1
100
AcDbLine
 10
88.95400000000001
 20
-96.53
 11
88.33211529493745
 21
-97.38595086466565
  0
LINE
  5
240
100
AcDbEntity
  8
0
  6
ByLayer
 62
  256
370
   -1
100
AcDbLine
 10
88.33211529493745
 20
-97.38595086466565
 11
88.95400000000001
 21
-96.53
  0
LINE
  5
241
100
AcDbEntity
  8
0
  6
ByLayer
 62
  256
370
   -1
100
AcDbLine
 10
88.08055764746874
 20
-97.30421483026504
 11
88.33211529493745
 21
-97.38595086466565
  0
LINE
  5
242
100
AcDbEntity
  8
0
  6
ByLayer
 62
  256
370
   -1
100
AcDbLine
 10
88.33211529493745
 20
-97.38595086466565
 11
88.08055764746874
 21
-97.30421483026504
  0
LINE
  5
243
100
AcDbEntity
  8
0
  6
ByLayer
 62
  256
370
   -1
100
AcDbLine
 10
88.08055764746874
 20
-95.75578516973496
 11
88.33211529493745
 21
-95.67404913533436
  0
LINE
  5
244
100
AcDbEntity
  8
0
  6
ByLayer
 62
  256
370
   -1
100
AcDbLine
 10
88.33211529493745
 20
-95.67404913533436
 11
88.08055764746874
 21
-95.75578516973496
  0
LINE
  5
245
100
AcDbEntity
  8
0
  6
ByLayer
 62
  256
370
   -1
100
AcDbLine
 10
88.95400000000001
 20
-96.53
 11
88.95400000000001
 21
-96.53
  0
LINE
  5
246
100
AcDbEntity
  8
0
  6
ByLayer
 62
  256
370
   -1
100
AcDbLine
 10
88.95400000000001
 20
-96.53
 11
88.33211529493745
 21
-95.67404913533436
  0
LINE
  5
247
100
AcDbEntity
  8
0
  6
ByLayer
 62
  256
370
   -1
100
AcDbLine
 10
88.33211529493745
 20
-95.67404913533436
 11
88.95400000000001
 21
-96.53
  0
LINE
  5
248
100
AcDbEntity
  8
0
  6
ByLayer
 62
  256
370
   -1
100
AcDbLine
 10
87.154
 20
-96.53
 11
87.154
 21
-96.53
  0
LINE
  5
249
100
AcDbEntity
  8
0
  6
ByLayer
 62
  256
370
   -1
100
AcDbLine
 10
87.154
 20
-96.53
 11
87.32588470506255
 21
-96.00099327293678
  0
LINE
  5
24A
100
AcDbEntity
  8
0
  6
ByLayer
 62
  256
370
   -1
100
AcDbLine
 10
87.32588470506255
 20
-96.00099327293678
 11
87.154
 21
-96.53
  0
LINE
  5
24B
100
AcDbEntity
  8
0
  6
ByLayer
 62
  256
370
   -1
100
AcDbLine
 10
88.08055764746874
 20
-95.75578516973496
 11
87.32588470506255
 21
-96.00099327293678
  0
LINE
  5
24C
100
AcDbEntity
  8
0
  6
ByLayer
 62
  256
370
   -1
100
AcDbLine
 10
87.32588470506255
 20
-96.00099327293678
 11
88.08055764746874
 21
-95.75578516973496
  0
LINE
  5
24D
100
AcDbEntity
  8
0
  6
ByLayer
 62
  256
370
   -1
100
AcDbLine
 10
34.99455764746872
 20
-141.8812148302651
 11
34.23988470506255
 21
-141.6360067270633
  0
LINE
  5
24E
100
AcDbEntity
  8
0
  6
ByLayer
 62
  256
370
   -1
100
AcDbLine
 10
34.23988470506255
 20
-141.6360067270633
 11
34.99455764746872
 21
-141.8812148302651
  0
LINE
  5
24F
100
AcDbEntity
  8
0
  6
ByLayer
 62
  256
370
   -1
100
AcDbLine
 10
34.068
 20
-141.107
 11
34.068
 21
-141.107
  0
LINE
  5
250
100
AcDbEntity
  8
0
  6
ByLayer
 62
  256
370
   -1
100
AcDbLine
 10
34.068
 20
-141.107
 11
34.23988470506255
 21
-141.6360067270633
  0
LINE
  5
251
100
AcDbEntity
  8
0
  6
ByLayer
 62
  256
370
   -1
100
AcDbLine
 10
34.23988470506255
 20
-141.6360067270633
 11
34.068
 21
-141.107
  0
LINE
  5
252
100
AcDbEntity
  8
0
  6
ByLayer
 62
  256
370
   -1
100
AcDbLine
 10
35.868
 20
-141.107
 11
35.868
 21
-141.107
  0
LINE
  5
253
100
AcDbEntity
  8
0
  6
ByLayer
 62
  256
370
   -1
100
AcDbLine
 10
35.868
 20
-141.107
 11
35.24611529493745
 21
-141.9629508646657
  0
LINE
  5
254
100
AcDbEntity
  8
0
  6
ByLayer
 62
  256
370
   -1
100
AcDbLine
 10
35.24611529493745
 20
-141.9629508646657
 11
35.868
 21
-141.107
  0
LINE
  5
255
100
AcDbEntity
  8
0
  6
ByLayer
 62
  256
370
   -1
100
AcDbLine
 10
34.99455764746872
 20
-141.8812148302651
 11
35.24611529493745
 21
-141.9629508646657
  0
LINE
  5
256
100
AcDbEntity
  8
0
  6
ByLayer
 62
  256
370
   -1
100
AcDbLine
 10
35.24611529493745
 20
-141.9629508646657
 11
34.99455764746872
 21
-141.8812148302651
  0
LINE
  5
257
100
AcDbEntity
  8
0
  6
ByLayer
 62
  256
370
   -1
100
AcDbLine
 10
34.99455764746872
 20
-140.332785169735
 11
35.24611529493745
 21
-140.2510491353344
  0
LINE
  5
258
100
AcDbEntity
  8
0
  6
ByLayer
 62
  256
370
   -1
100
AcDbLine
 10
35.24611529493745
 20
-140.2510491353344
 11
34.99455764746872
 21
-140.332785169735
  0
LINE
  5
259
100
AcDbEntity
  8
0
  6
ByLayer
 62
  256
370
   -1
100
AcDbLine
 10
35.868
 20
-141.107
 11
35.868
 21
-141.107
  0
LINE
  5
25A
100
AcDbEntity
  8
0
  6
ByLayer
 62
  256
370
   -1
100
AcDbLine
 10
35.868
 20
-141.107
 11
35.24611529493745
 21
-140.2510491353344
  0
LINE
  5
25B
100
AcDbEntity
  8
0
  6
ByLayer
 62
  256
370
   -1
100
AcDbLine
 10
35.24611529493745
 20
-140.2510491353344
 11
35.868
 21
-141.107
  0
LINE
  5
25C
100
AcDbEntity
  8
0
  6
ByLayer
 62
  256
370
   -1
100
AcDbLine
 10
34.068
 20
-141.107
 11
34.068
 21
-141.107
  0
LINE
  5
25D
100
AcDbEntity
  8
0
  6
ByLayer
 62
  256
370
   -1
100
AcDbLine
 10
34.068
 20
-141.107
 11
34.23988470506255
 21
-140.5779932729368
  0
LINE
  5
25E
100
AcDbEntity
  8
0
  6
ByLayer
 62
  256
370
   -1
100
AcDbLine
 10
34.23988470506255
 20
-140.5779932729368
 11
34.068
 21
-141.107
  0
LINE
  5
25F
100
AcDbEntity
  8
0
  6
ByLayer
 62
  256
370
   -1
100
AcDbLine
 10
34.99455764746872
 20
-140.332785169735
 11
34.23988470506255
 21
-140.5779932729368
  0
LINE
  5
260
100
AcDbEntity
  8
0
  6
ByLayer
 62
  256
370
   -1
100
AcDbLine
 10
34.23988470506255
 20
-140.5779932729368
 11
34.99455764746872
 21
-140.332785169735
  0
LINE
  5
261
100
AcDbEntity
  8
0
  6
ByLayer
 62
  256
370
   -1
100
AcDbLine
 10
88.96955764746872
 20
-146.4532148302651
 11
88.21488470506254
 21
-146.2080067270633
  0
LINE
  5
262
100
AcDbEntity
  8
0
  6
ByLayer
 62
  256
370
   -1
100
AcDbLine
 10
88.21488470506254
 20
-146.2080067270633
 11
88.96955764746872
 21
-146.4532148302651
  0
LINE
  5
263
100
AcDbEntity
  8
0
  6
ByLayer
 62
  256
370
   -1
100
AcDbLine
 10
88.04299999999999
 20
-145.679
 11
88.04299999999999
 21
-145.679
  0
LINE
  5
264
100
AcDbEntity
  8
0
  6
ByLayer
 62
  256
370
   -1
100
AcDbLine
 10
88.04299999999999
 20
-145.679
 11
88.21488470506254
 21
-146.2080067270633
  0
LINE
  5
265
100
AcDbEntity
  8
0
  6
ByLayer
 62
  256
370
   -1
100
AcDbLine
 10
88.21488470506254
 20
-146.2080067270633
 11
88.04299999999999
 21
-145.679
  0
LINE
  5
266
100
AcDbEntity
  8
0
  6
ByLayer
 62
  256
370
   -1
100
AcDbLine
 10
89.843
 20
-145.679
 11
89.843
 21
-145.679
  0
LINE
  5
267
100
AcDbEntity
  8
0
  6
ByLayer
 62
  256
370
   -1
100
AcDbLine
 10
89.843
 20
-145.679
 11
89.22111529493745
 21
-146.5349508646657
  0
LINE
  5
268
100
AcDbEntity
  8
0
  6
ByLayer
 62
  256
370
   -1
100
AcDbLine
 10
89.22111529493745
 20
-146.5349508646657
 11
89.843
 21
-145.679
  0
LINE
  5
269
100
AcDbEntity
  8
0
  6
ByLayer
 62
  256
370
   -1
100
AcDbLine
 10
88.96955764746872
 20
-146.4532148302651
 11
89.22111529493745
 21
-146.5349508646657
  0
LINE
  5
26A
100
AcDbEntity
  8
0
  6
ByLayer
 62
  256
370
   -1
100
AcDbLine
 10
89.22111529493745
 20
-146.5349508646657
 11
88.96955764746872
 21
-146.4532148302651
  0
LINE
  5
26B
100
AcDbEntity
  8
0
  6
ByLayer
 62
  256
370
   -1
100
AcDbLine
 10
88.96955764746872
 20
-144.904785169735
 11
89.22111529493745
 21
-144.8230491353344
  0
LINE
  5
26C
100
AcDbEntity
  8
0
  6
ByLayer
 62
  256
370
   -1
100
AcDbLine
 10
89.22111529493745
 20
-144.8230491353344
 11
88.96955764746872
 21
-144.904785169735
  0
LINE
  5
26D
100
AcDbEntity
  8
0
  6
ByLayer
 62
  256
370
   -1
100
AcDbLine
 10
89.843
 20
-145.679
 11
89.843
 21
-145.679
  0
LINE
  5
26E
100
AcDbEntity
  8
0
  6
ByLayer
 62
  256
370
   -1
100
AcDbLine
 10
89.843
 20
-145.679
 11
89.22111529493745
 21
-144.8230491353344
  0
LINE
  5
26F
100
AcDbEntity
  8
0
  6
ByLayer
 62
  256
370
   -1
100
AcDbLine
 10
89.22111529493745
 20
-144.8230491353344
 11
89.843
 21
-145.679
  0
LINE
  5
270
100
AcDbEntity
  8
0
  6
ByLayer
 62
  256
370
   -1
100
AcDbLine
 10
88.04299999999999
 20
-145.679
 11
88.04299999999999
 21
-145.679
  0
LINE
  5
271
100
AcDbEntity
  8
0
  6
ByLayer
 62
  256
370
   -1
100
AcDbLine
 10
88.04299999999999
 20
-145.679
 11
88.21488470506254
 21
-145.1499932729368
  0
LINE
  5
272
100
AcDbEntity
  8
0
  6
ByLayer
 62
  256
370
   -1
100
AcDbLine
 10
88.21488470506254
 20
-145.1499932729368
 11
88.04299999999999
 21
-145.679
  0
LINE
  5
273
100
AcDbEntity
  8
0
  6
ByLayer
 62
  256
370
   -1
100
AcDbLine
 10
88.96955764746872
 20
-144.904785169735
 11
88.21488470506254
 21
-145.1499932729368
  0
LINE
  5
274
100
AcDbEntity
  8
0
  6
ByLayer
 62
  256
370
   -1
100
AcDbLine
 10
88.21488470506254
 20
-145.1499932729368
 11
88.96955764746872
 21
-144.904785169735
  0
LINE
  5
275
100
AcDbEntity
  8
0
  6
ByLayer
 62
  256
370
   -1
100
AcDbLine
 10
70.90900000000002
 20
-153.898
 11
70.90900000000002
 21
-153.898
  0
LINE
  5
276
100
AcDbEntity
  8
0
  6
ByLayer
 62
  256
370
   -1
100
AcDbLine
 10
70.90900000000002
 20
-153.898
 11
69.31800974233029
 21
-153.2389902576697
  0
LINE
  5
277
100
AcDbEntity
  8
0
  6
ByLayer
 62
  256
370
   -1
100
AcDbLine
 10
69.31800974233029
 20
-153.2389902576697
 11
70.90900000000002
 21
-153.898
  0
LINE
  5
278
100
AcDbEntity
  8
0
  6
ByLayer
 62
  256
370
   -1
100
AcDbLine
 10
68.65900000000002
 20
-151.648
 11
68.65900000000002
 21
-151.648
  0
LINE
  5
279
100
AcDbEntity
  8
0
  6
ByLayer
 62
  256
370
   -1
100
AcDbLine
 10
68.65900000000002
 20
-151.648
 11
69.31800974233029
 21
-153.2389902576697
  0
LINE
  5
27A
100
AcDbEntity
  8
0
  6
ByLayer
 62
  256
370
   -1
100
AcDbLine
 10
69.31800974233029
 20
-153.2389902576697
 11
68.65900000000002
 21
-151.648
  0
LINE
  5
27B
100
AcDbEntity
  8
0
  6
ByLayer
 62
  256
370
   -1
100
AcDbLine
 10
73.15900000000002
 20
-151.648
 11
73.15900000000002
 21
-151.648
  0
LINE
  5
27C
100
AcDbEntity
  8
0
  6
ByLayer
 62
  256
370
   -1
100
AcDbLine
 10
73.15900000000002
 20
-151.648
 11
72.49999025766975
 21
-153.2389902576697
  0
LINE
  5
27D
100
AcDbEntity
  8
0
  6
ByLayer
 62
  256
370
   -1
100
AcDbLine
 10
72.49999025766975
 20
-153.2389902576697
 11
73.15900000000002
 21
-151.648
  0
LINE
  5
27E
100
AcDbEntity
  8
0
  6
ByLayer
 62
  256
370
   -1
100
AcDbLine
 10
70.90900000000002
 20
-153.898
 11
70.90900000000002
 21
-153.898
  0
LINE
  5
27F
100
AcDbEntity
  8
0
  6
ByLayer
 62
  256
370
   -1
100
AcDbLine
 10
70.90900000000002
 20
-153.898
 11
72.49999025766975
 21
-153.2389902576697
  0
LINE
  5
280
100
AcDbEntity
  8
0
  6
ByLayer
 62
  256
370
   -1
100
AcDbLine
 10
72.49999025766975
 20
-153.2389902576697
 11
70.90900000000002
 21
-153.898
  0
LINE
  5
281
100
AcDbEntity
  8
0
  6
ByLayer
 62
  256
370
   -1
100
AcDbLine
 10
70.90900000000002
 20
-149.398
 11
70.90900000000002
 21
-149.398
  0
LINE
  5
282
100
AcDbEntity
  8
0
  6
ByLayer
 62
  256
370
   -1
100
AcDbLine
 10
70.90900000000002
 20
-149.398
 11
72.49999025766975
 21
-150.0570097423303
  0
LINE
  5
283
100
AcDbEntity
  8
0
  6
ByLayer
 62
  256
370
   -1
100
AcDbLine
 10
72.49999025766975
 20
-150.0570097423303
 11
70.90900000000002
 21
-149.398
  0
LINE
  5
284
100
AcDbEntity
  8
0
  6
ByLayer
 62
  256
370
   -1
100
AcDbLine
 10
73.15900000000002
 20
-151.648
 11
73.15900000000002
 21
-151.648
  0
LINE
  5
285
100
AcDbEntity
  8
0
  6
ByLayer
 62
  256
370
   -1
100
AcDbLine
 10
73.15900000000002
 20
-151.648
 11
72.49999025766975
 21
-150.0570097423303
  0
LINE
  5
286
100
AcDbEntity
  8
0
  6
ByLayer
 62
  256
370
   -1
100
AcDbLine
 10
72.49999025766975
 20
-150.0570097423303
 11
73.15900000000002
 21
-151.648
  0
LINE
  5
287
100
AcDbEntity
  8
0
  6
ByLayer
 62
  256
370
   -1
100
AcDbLine
 10
68.65900000000002
 20
-151.648
 11
68.65900000000002
 21
-151.648
  0
LINE
  5
288
100
AcDbEntity
  8
0
  6
ByLayer
 62
  256
370
   -1
100
AcDbLine
 10
68.65900000000002
 20
-151.648
 11
69.31800974233029
 21
-150.0570097423303
  0
LINE
  5
289
100
AcDbEntity
  8
0
  6
ByLayer
 62
  256
370
   -1
100
AcDbLine
 10
69.31800974233029
 20
-150.0570097423303
 11
68.65900000000002
 21
-151.648
  0
LINE
  5
28A
100
AcDbEntity
  8
0
  6
ByLayer
 62
  256
370
   -1
100
AcDbLine
 10
70.90900000000002
 20
-149.398
 11
70.90900000000002
 21
-149.398
  0
LINE
  5
28B
100
AcDbEntity
  8
0
  6
ByLayer
 62
  256
370
   -1
100
AcDbLine
 10
70.90900000000002
 20
-149.398
 11
69.31800974233029
 21
-150.0570097423303
  0
LINE
  5
28C
100
AcDbEntity
  8
0
  6
ByLayer
 62
  256
370
   -1
100
AcDbLine
 10
69.31800974233029
 20
-150.0570097423303
 11
70.90900000000002
 21
-149.398
  0
LINE
  5
28D
100
AcDbEntity
  8
0
  6
ByLayer
 62
  256
370
   -1
100
AcDbLine
 10
83.00055764746874
 20
-166.0112148302651
 11
82.24588470506256
 21
-165.7660067270633
  0
LINE
  5
28E
100
AcDbEntity
  8
0
  6
ByLayer
 62
  256
370
   -1
100
AcDbLine
 10
82.24588470506256
 20
-165.7660067270633
 11
83.00055764746874
 21
-166.0112148302651
  0
LINE
  5
28F
100
AcDbEntity
  8
0
  6
ByLayer
 62
  256
370
   -1
100
AcDbLine
 10
82.07400000000001
 20
-165.237
 11
82.07400000000001
 21
-165.237
  0
LINE
  5
290
100
AcDbEntity
  8
0
  6
ByLayer
 62
  256
370
   -1
100
AcDbLine
 10
82.07400000000001
 20
-165.237
 11
82.24588470506256
 21
-165.7660067270633
  0
LINE
  5
291
100
AcDbEntity
  8
0
  6
ByLayer
 62
  256
370
   -1
100
AcDbLine
 10
82.24588470506256
 20
-165.7660067270633
 11
82.07400000000001
 21
-165.237
  0
LINE
  5
292
100
AcDbEntity
  8
0
  6
ByLayer
 62
  256
370
   -1
100
AcDbLine
 10
83.87400000000002
 20
-165.237
 11
83.87400000000002
 21
-165.237
  0
LINE
  5
293
100
AcDbEntity
  8
0
  6
ByLayer
 62
  256
370
   -1
100
AcDbLine
 10
83.87400000000002
 20
-165.237
 11
83.25211529493747
 21
-166.0929508646657
  0
LINE
  5
294
100
AcDbEntity
  8
0
  6
ByLayer
 62
  256
370
   -1
100
AcDbLine
 10
83.25211529493747
 20
-166.0929508646657
 11
83.87400000000002
 21
-165.237
  0
LINE
  5
295
100
AcDbEntity
  8
0
  6
ByLayer
 62
  256
370
   -1
100
AcDbLine
 10
83.00055764746874
 20
-166.0112148302651
 11
83.25211529493747
 21
-166.0929508646657
  0
LINE
  5
296
100
AcDbEntity
  8
0
  6
ByLayer
 62
  256
370
   -1
100
AcDbLine
 10
83.25211529493747
 20
-166.0929508646657
 11
83.00055764746874
 21
-166.0112148302651
  0
LINE
  5
297
100
AcDbEntity
  8
0
  6
ByLayer
 62
  256
370
   -1
100
AcDbLine
 10
83.00055764746874
 20
-164.462785169735
 11
83.25211529493747
 21
-164.3810491353344
  0
LINE
  5
298
100
AcDbEntity
  8
0
  6
ByLayer
 62
  256
370
   -1
100
AcDbLine
 10
83.25211529493747
 20
-164.3810491353344
 11
83.00055764746874
 21
-164.462785169735
  0
LINE
  5
299
100
AcDbEntity
  8
0
  6
ByLayer
 62
  256
370
   -1
100
AcDbLine
 10
83.87400000000002
 20
-165.237
 11
83.87400000000002
 21
-165.237
  0
LINE
  5
29A
100
AcDbEntity
  8
0
  6
ByLayer
 62
  256
370
   -1
100
AcDbLine
 10
83.87400000000002
 20
-165.237
 11
83.25211529493747
 21
-164.3810491353344
  0
LINE
  5
29B
100
AcDbEntity
  8
0
  6
ByLayer
 62
  256
370
   -1
100
AcDbLine
 10
83.25211529493747
 20
-164.3810491353344
 11
83.87400000000002
 21
-165.237
  0
LINE
  5
29C
100
AcDbEntity
  8
0
  6
ByLayer
 62
  256
370
   -1
100
AcDbLine
 10
82.07400000000001
 20
-165.237
 11
82.07400000000001
 21
-165.237
  0
LINE
  5
29D
100
AcDbEntity
  8
0
  6
ByLayer
 62
  256
370
   -1
100
AcDbLine
 10
82.07400000000001
 20
-165.237
 11
82.24588470506256
 21
-164.7079932729368
  0
LINE
  5
29E
100
AcDbEntity
  8
0
  6
ByLayer
 62
  256
370
   -1
100
AcDbLine
 10
82.24588470506256
 20
-164.7079932729368
 11
82.07400000000001
 21
-165.237
  0
LINE
  5
29F
100
AcDbEntity
  8
0
  6
ByLayer
 62
  256
370
   -1
100
AcDbLine
 10
83.00055764746874
 20
-164.462785169735
 11
82.24588470506256
 21
-164.7079932729368
  0
LINE
  5
2A0
100
AcDbEntity
  8
0
  6
ByLayer
 62
  256
370
   -1
100
AcDbLine
 10
82.24588470506256
 20
-164.7079932729368
 11
83.00055764746874
 21
-164.462785169735
  0
LINE
  5
2A1
100
AcDbEntity
  8
0
  6
ByLayer
 62
  256
370
   -1
100
AcDbLine
 10
91.00155764746872
 20
-163.471214830265
 11
90.24688470506254
 21
-163.2260067270632
  0
LINE
  5
2A2
100
AcDbEntity
  8
0
  6
ByLayer
 62
  256
370
   -1
100
AcDbLine
 10
90.24688470506254
 20
-163.2260067270632
 11
91.00155764746872
 21
-163.471214830265
  0
LINE
  5
2A3
100
AcDbEntity
  8
0
  6
ByLayer
 62
  256
370
   -1
100
AcDbLine
 10
90.07499999999999
 20
-162.697
 11
90.07499999999999
 21
-162.697
  0
LINE
  5
2A4
100
AcDbEntity
  8
0
  6
ByLayer
 62
  256
370
   -1
100
AcDbLine
 10
90.07499999999999
 20
-162.697
 11
90.24688470506254
 21
-163.2260067270632
  0
LINE
  5
2A5
100
AcDbEntity
  8
0
  6
ByLayer
 62
  256
370
   -1
100
AcDbLine
 10
90.24688470506254
 20
-163.2260067270632
 11
90.07499999999999
 21
-162.697
  0
LINE
  5
2A6
100
AcDbEntity
  8
0
  6
ByLayer
 62
  256
370
   -1
100
AcDbLine
 10
91.875
 20
-162.697
 11
91.875
 21
-162.697
  0
LINE
  5
2A7
100
AcDbEntity
  8
0
  6
ByLayer
 62
  256
370
   -1
100
AcDbLine
 10
91.875
 20
-162.697
 11
91.25311529493744
 21
-163.5529508646656
  0
LINE
  5
2A8
100
AcDbEntity
  8
0
  6
ByLayer
 62
  256
370
   -1
100
AcDbLine
 10
91.25311529493744
 20
-163.5529508646656
 11
91.875
 21
-162.697
  0
LINE
  5
2A9
100
AcDbEntity
  8
0
  6
ByLayer
 62
  256
370
   -1
100
AcDbLine
 10
91.00155764746872
 20
-163.471214830265
 11
91.25311529493744
 21
-163.5529508646656
  0
LINE
  5
2AA
100
AcDbEntity
  8
0
  6
ByLayer
 62
  256
370
   -1
100
AcDbLine
 10
91.25311529493744
 20
-163.5529508646656
 11
91.00155764746872
 21
-163.471214830265
  0
LINE
  5
2AB
100
AcDbEntity
  8
0
  6
ByLayer
 62
  256
370
   -1
100
AcDbLine
 10
91.00155764746872
 20
-161.922785169735
 11
91.25311529493744
 21
-161.8410491353344
  0
LINE
  5
2AC
100
AcDbEntity
  8
0
  6
ByLayer
 62
  256
370
   -1
100
AcDbLine
 10
91.25311529493744
 20
-161.8410491353344
 11
91.00155764746872
 21
-161.922785169735
  0
LINE
  5
2AD
100
AcDbEntity
  8
0
  6
ByLayer
 62
  256
370
   -1
100
AcDbLine
 10
91.875
 20
-162.697
 11
91.875
 21
-162.697
  0
LINE
  5
2AE
100
AcDbEntity
  8
0
  6
ByLayer
 62
  256
370
   -1
100
AcDbLine
 10
91.875
 20
-162.697
 11
91.25311529493744
 21
-161.8410491353344
  0
LINE
  5
2AF
100
AcDbEntity
  8
0
  6
ByLayer
 62
  256
370
   -1
100
AcDbLine
 10
91.25311529493744
 20
-161.8410491353344
 11
91.875
 21
-162.697
  0
LINE
  5
2B0
100
AcDbEntity
  8
0
  6
ByLayer
 62
  256
370
   -1
100
AcDbLine
 10
90.07499999999999
 20
-162.697
 11
90.07499999999999
 21
-162.697
  0
LINE
  5
2B1
100
AcDbEntity
  8
0
  6
ByLayer
 62
  256
370
   -1
100
AcDbLine
 10
90.07499999999999
 20
-162.697
 11
90.24688470506254
 21
-162.1679932729368
  0
LINE
  5
2B2
100
AcDbEntity
  8
0
  6
ByLayer
 62
  256
370
   -1
100
AcDbLine
 10
90.24688470506254
 20
-162.1679932729368
 11
90.07499999999999
 21
-162.697
  0
LINE
  5
2B3
100
AcDbEntity
  8
0
  6
ByLayer
 62
  256
370
   -1
100
AcDbLine
 10
91.00155764746872
 20
-161.922785169735
 11
90.24688470506254
 21
-162.1679932729368
  0
LINE
  5
2B4
100
AcDbEntity
  8
0
  6
ByLayer
 62
  256
370
   -1
100
AcDbLine
 10
90.24688470506254
 20
-162.1679932729368
 11
91.00155764746872
 21
-161.922785169735
  0
LINE
  5
2B5
100
AcDbEntity
  8
0
  6
ByLayer
 62
  256
370
   -1
100
AcDbLine
 10
32.96255764746872
 20
-163.471214830265
 11
32.20788470506255
 21
-163.2260067270632
  0
LINE
  5
2B6
100
AcDbEntity
  8
0
  6
ByLayer
 62
  256
370
   -1
100
AcDbLine
 10
32.20788470506255
 20
-163.2260067270632
 11
32.96255764746872
 21
-163.471214830265
  0
LINE
  5
2B7
100
AcDbEntity
  8
0
  6
ByLayer
 62
  256
370
   -1
100
AcDbLine
 10
32.036
 20
-162.697
 11
32.036
 21
-162.697
  0
LINE
  5
2B8
100
AcDbEntity
  8
0
  6
ByLayer
 62
  256
370
   -1
100
AcDbLine
 10
32.036
 20
-162.697
 11
32.20788470506255
 21
-163.2260067270632
  0
LINE
  5
2B9
100
AcDbEntity
  8
0
  6
ByLayer
 62
  256
370
   -1
100
AcDbLine
 10
32.20788470506255
 20
-163.2260067270632
 11
32.036
 21
-162.697
  0
LINE
  5
2BA
100
AcDbEntity
  8
0
  6
ByLayer
 62
  256
370
   -1
100
AcDbLine
 10
33.836
 20
-162.697
 11
33.836
 21
-162.697
  0
LINE
  5
2BB
100
AcDbEntity
  8
0
  6
ByLayer
 62
  256
370
   -1
100
AcDbLine
 10
33.836
 20
-162.697
 11
33.21411529493745
 21
-163.5529508646656
  0
LINE
  5
2BC
100
AcDbEntity
  8
0
  6
ByLayer
 62
  256
370
   -1
100
AcDbLine
 10
33.21411529493745
 20
-163.5529508646656
 11
33.836
 21
-162.697
  0
LINE
  5
2BD
100
AcDbEntity
  8
0
  6
ByLayer
 62
  256
370
   -1
100
AcDbLine
 10
32.96255764746872
 20
-163.471214830265
 11
33.21411529493745
 21
-163.5529508646656
  0
LINE
  5
2BE
100
AcDbEntity
  8
0
  6
ByLayer
 62
  256
370
   -1
100
AcDbLine
 10
33.21411529493745
 20
-163.5529508646656
 11
32.96255764746872
 21
-163.471214830265
  0
LINE
  5
2BF
100
AcDbEntity
  8
0
  6
ByLayer
 62
  256
370
   -1
100
AcDbLine
 10
32.96255764746872
 20
-161.922785169735
 11
33.21411529493745
 21
-161.8410491353344
  0
LINE
  5
2C0
100
AcDbEntity
  8
0
  6
ByLayer
 62
  256
370
   -1
100
AcDbLine
 10
33.21411529493745
 20
-161.8410491353344
 11
32.96255764746872
 21
-161.922785169735
  0
LINE
  5
2C1
100
AcDbEntity
  8
0
  6
ByLayer
 62
  256
370
   -1
100
AcDbLine
 10
33.836
 20
-162.697
 11
33.836
 21
-162.697
  0
LINE
  5
2C2
100
AcDbEntity
  8
0
  6
ByLayer
 62
  256
370
   -1
100
AcDbLine
 10
33.836
 20
-162.697
 11
33.21411529493745
 21
-161.8410491353344
  0
LINE
  5
2C3
100
AcDbEntity
  8
0
  6
ByLayer
 62
  256
370
   -1
100
AcDbLine
 10
33.21411529493745
 20
-161.8410491353344
 11
33.836
 21
-162.697
  0
LINE
  5
2C4
100
AcDbEntity
  8
0
  6
ByLayer
 62
  256
370
   -1
100
AcDbLine
 10
32.036
 20
-162.697
 11
32.036
 21
-162.697
  0
LINE
  5
2C5
100
AcDbEntity
  8
0
  6
ByLayer
 62
  256
370
   -1
100
AcDbLine
 10
32.036
 20
-162.697
 11
32.20788470506255
 21
-162.1679932729368
  0
LINE
  5
2C6
100
AcDbEntity
  8
0
  6
ByLayer
 62
  256
370
   -1
100
AcDbLine
 10
32.20788470506255
 20
-162.1679932729368
 11
32.036
 21
-162.697
  0
LINE
  5
2C7
100
AcDbEntity
  8
0
  6
ByLayer
 62
  256
370
   -1
100
AcDbLine
 10
32.96255764746872
 20
-161.922785169735
 11
32.20788470506255
 21
-162.1679932729368
  0
LINE
  5
2C8
100
AcDbEntity
  8
0
  6
ByLayer
 62
  256
370
   -1
100
AcDbLine
 10
32.20788470506255
 20
-162.1679932729368
 11
32.96255764746872
 21
-161.922785169735
  0
LINE
  5
2C9
100
AcDbEntity
  8
0
  6
ByLayer
 62
  256
370
   -1
100
AcDbLine
 10
56.44575424859374
 20
-116.6451193501472
 11
56.02649150281253
 21
-116.5088926261462
  0
LINE
  5
2CA
100
AcDbEntity
  8
0
  6
ByLayer
 62
  256
370
   -1
100
AcDbLine
 10
56.02649150281253
 20
-116.5088926261462
 11
56.44575424859374
 21
-116.6451193501472
  0
LINE
  5
2CB
100
AcDbEntity
  8
0
  6
ByLayer
 62
  256
370
   -1
100
AcDbLine
 10
55.931
 20
-116.215
 11
55.931
 21
-116.215
  0
LINE
  5
2CC
100
AcDbEntity
  8
0
  6
ByLayer
 62
  256
370
   -1
100
AcDbLine
 10
55.931
 20
-116.215
 11
56.02649150281253
 21
-116.5088926261462
  0
LINE
  5
2CD
100
AcDbEntity
  8
0
  6
ByLayer
 62
  256
370
   -1
100
AcDbLine
 10
56.02649150281253
 20
-116.5088926261462
 11
55.931
 21
-116.215
  0
LINE
  5
2CE
100
AcDbEntity
  8
0
  6
ByLayer
 62
  256
370
   -1
100
AcDbLine
 10
56.931
 20
-116.215
 11
56.931
 21
-116.215
  0
LINE
  5
2CF
100
AcDbEntity
  8
0
  6
ByLayer
 62
  256
370
   -1
100
AcDbLine
 10
56.931
 20
-116.215
 11
56.58550849718748
 21
-116.6905282581476
  0
LINE
  5
2D0
100
AcDbEntity
  8
0
  6
ByLayer
 62
  256
370
   -1
100
AcDbLine
 10
56.58550849718748
 20
-116.6905282581476
 11
56.931
 21
-116.215
  0
LINE
  5
2D1
100
AcDbEntity
  8
0
  6
ByLayer
 62
  256
370
   -1
100
AcDbLine
 10
56.44575424859374
 20
-116.6451193501472
 11
56.58550849718748
 21
-116.6905282581476
  0
LINE
  5
2D2
100
AcDbEntity
  8
0
  6
ByLayer
 62
  256
370
   -1
100
AcDbLine
 10
56.58550849718748
 20
-116.6905282581476
 11
56.44575424859374
 21
-116.6451193501472
  0
LINE
  5
2D3
100
AcDbEntity
  8
0
  6
ByLayer
 62
  256
370
   -1
100
AcDbLine
 10
56.44575424859374
 20
-115.7848806498528
 11
56.58550849718748
 21
-115.7394717418524
  0
LINE
  5
2D4
100
AcDbEntity
  8
0
  6
ByLayer
 62
  256
370
   -1
100
AcDbLine
 10
56.58550849718748
 20
-115.7394717418524
 11
56.44575424859374
 21
-115.7848806498528
  0
LINE
  5
2D5
100
AcDbEntity
  8
0
  6
ByLayer
 62
  256
370
   -1
100
AcDbLine
 10
56.931
 20
-116.215
 11
56.931
 21
-116.215
  0
LINE
  5
2D6
100
AcDbEntity
  8
0
  6
ByLayer
 62
  256
370
   -1
100
AcDbLine
 10
56.931
 20
-116.215
 11
56.58550849718748
 21
-115.7394717418524
  0
LINE
  5
2D7
100
AcDbEntity
  8
0
  6
ByLayer
 62
  256
370
   -1
100
AcDbLine
 10
56.58550849718748
 20
-115.7394717418524
 11
56.931
 21
-116.215
  0
LINE
  5
2D8
100
AcDbEntity
  8
0
  6
ByLayer
 62
  256
370
   -1
100
AcDbLine
 10
55.931
 20
-116.215
 11
55.931
 21
-116.215
  0
LINE
  5
2D9
100
AcDbEntity
  8
0
  6
ByLayer
 62
  256
370
   -1
100
AcDbLine
 10
55.931
 20
-116.215
 11
56.02649150281253
 21
-115.9211073738538
  0
LINE
  5
2DA
100
AcDbEntity
  8
0
  6
ByLayer
 62
  256
370
   -1
100
AcDbLine
 10
56.02649150281253
 20
-115.9211073738538
 11
55.931
 21
-116.215
  0
LINE
  5
2DB
100
AcDbEntity
  8
0
  6
ByLayer
 62
  256
370
   -1
100
AcDbLine
 10
56.44575424859374
 20
-115.7848806498528
 11
56.02649150281253
 21
-115.9211073738538
  0
LINE
  5
2DC
100
AcDbEntity
  8
0
  6
ByLayer
 62
  256
370
   -1
100
AcDbLine
 10
56.02649150281253
 20
-115.9211073738538
 11
56.44575424859374
 21
-115.7848806498528
  0
LINE
  5
2DD
100
AcDbEntity
  8
0
  6
ByLayer
 62
  256
370
   -1
100
AcDbLine
 10
51.36575424859375
 20
-116.6451193501472
 11
50.94649150281253
 21
-116.5088926261462
  0
LINE
  5
2DE
100
AcDbEntity
  8
0
  6
ByLayer
 62
  256
370
   -1
100
AcDbLine
 10
50.94649150281253
 20
-116.5088926261462
 11
51.36575424859375
 21
-116.6451193501472
  0
LINE
  5
2DF
100
AcDbEntity
  8
0
  6
ByLayer
 62
  256
370
   -1
100
AcDbLine
 10
50.85100000000001
 20
-116.215
 11
50.85100000000001
 21
-116.215
  0
LINE
  5
2E0
100
AcDbEntity
  8
0
  6
ByLayer
 62
  256
370
   -1
100
AcDbLine
 10
50.85100000000001
 20
-116.215
 11
50.94649150281253
 21
-116.5088926261462
  0
LINE
  5
2E1
100
AcDbEntity
  8
0
  6
ByLayer
 62
  256
370
   -1
100
AcDbLine
 10
50.94649150281253
 20
-116.5088926261462
 11
50.85100000000001
 21
-116.215
  0
LINE
  5
2E2
100
AcDbEntity
  8
0
  6
ByLayer
 62
  256
370
   -1
100
AcDbLine
 10
51.85100000000001
 20
-116.215
 11
51.85100000000001
 21
-116.215
  0
LINE
  5
2E3
100
AcDbEntity
  8
0
  6
ByLayer
 62
  256
370
   -1
100
AcDbLine
 10
51.85100000000001
 20
-116.215
 11
51.50550849718748
 21
-116.6905282581476
  0
LINE
  5
2E4
100
AcDbEntity
  8
0
  6
ByLayer
 62
  256
370
   -1
100
AcDbLine
 10
51.50550849718748
 20
-116.6905282581476
 11
51.85100000000001
 21
-116.215
  0
LINE
  5
2E5
100
AcDbEntity
  8
0
  6
ByLayer
 62
  256
370
   -1
100
AcDbLine
 10
51.36575424859375
 20
-116.6451193501472
 11
51.50550849718748
 21
-116.6905282581476
  0
LINE
  5
2E6
100
AcDbEntity
  8
0
  6
ByLayer
 62
  256
370
   -1
100
AcDbLine
 10
51.50550849718748
 20
-116.6905282581476
 11
51.36575424859375
 21
-116.6451193501472
  0
LINE
  5
2E7
100
AcDbEntity
  8
0
  6
ByLayer
 62
  256
370
   -1
100
AcDbLine
 10
51.36575424859375
 20
-115.7848806498528
 11
51.50550849718748
 21
-115.7394717418524
  0
LINE
  5
2E8
100
AcDbEntity
  8
0
  6
ByLayer
 62
  256
370
   -1
100
AcDbLine
 10
51.50550849718748
 20
-115.7394717418524
 11
51.36575424859375
 21
-115.7848806498528
  0
LINE
  5
2E9
100
AcDbEntity
  8
0
  6
ByLayer
 62
  256
370
   -1
100
AcDbLine
 10
51.85100000000001
 20
-116.215
 11
51.85100000000001
 21
-116.215
  0
LINE
  5
2EA
100
AcDbEntity
  8
0
  6
ByLayer
 62
  256
370
   -1
100
AcDbLine
 10
51.85100000000001
 20
-116.215
 11
51.50550849718748
 21
-115.7394717418524
  0
LINE
  5
2EB
100
AcDbEntity
  8
0
  6
ByLayer
 62
  256
370
   -1
100
AcDbLine
 10
51.50550849718748
 20
-115.7394717418524
 11
51.85100000000001
 21
-116.215
  0
LINE
  5
2EC
100
AcDbEntity
  8
0
  6
ByLayer
 62
  256
370
   -1
100
AcDbLine
 10
50.85100000000001
 20
-116.215
 11
50.85100000000001
 21
-116.215
  0
LINE
  5
2ED
100
AcDbEntity
  8
0
  6
ByLayer
 62
  256
370
   -1
100
AcDbLine
 10
50.85100000000001
 20
-116.215
 11
50.94649150281253
 21
-115.9211073738538
  0
LINE
  5
2EE
100
AcDbEntity
  8
0
  6
ByLayer
 62
  256
370
   -1
100
AcDbLine
 10
50.94649150281253
 20
-115.9211073738538
 11
50.85100000000001
 21
-116.215
  0
LINE
  5
2EF
100
AcDbEntity
  8
0
  6
ByLayer
 62
  256
370
   -1
100
AcDbLine
 10
51.36575424859375
 20
-115.7848806498528
 11
50.94649150281253
 21
-115.9211073738538
  0
LINE
  5
2F0
100
AcDbEntity
  8
0
  6
ByLayer
 62
  256
370
   -1
100
AcDbLine
 10
50.94649150281253
 20
-115.9211073738538
 11
51.36575424859375
 21
-115.7848806498528
  0
LINE
  5
2F1
100
AcDbEntity
  8
0
  6
ByLayer
 62
  256
370
   -1
100
AcDbLine
 10
66.60575424859373
 20
-116.6451193501472
 11
66.18649150281252
 21
-116.5088926261462
  0
LINE
  5
2F2
100
AcDbEntity
  8
0
  6
ByLayer
 62
  256
370
   -1
100
AcDbLine
 10
66.18649150281252
 20
-116.5088926261462
 11
66.60575424859373
 21
-116.6451193501472
  0
LINE
  5
2F3
100
AcDbEntity
  8
0
  6
ByLayer
 62
  256
370
   -1
100
AcDbLine
 10
66.09099999999999
 20
-116.215
 11
66.09099999999999
 21
-116.215
  0
LINE
  5
2F4
100
AcDbEntity
  8
0
  6
ByLayer
 62
  256
370
   -1
100
AcDbLine
 10
66.09099999999999
 20
-116.215
 11
66.18649150281252
 21
-116.5088926261462
  0
LINE
  5
2F5
100
AcDbEntity
  8
0
  6
ByLayer
 62
  256
370
   -1
100
AcDbLine
 10
66.18649150281252
 20
-116.5088926261462
 11
66.09099999999999
 21
-116.215
  0
LINE
  5
2F6
100
AcDbEntity
  8
0
  6
ByLayer
 62
  256
370
   -1
100
AcDbLine
 10
67.09099999999999
 20
-116.215
 11
67.09099999999999
 21
-116.215
  0
LINE
  5
2F7
100
AcDbEntity
  8
0
  6
ByLayer
 62
  256
370
   -1
100
AcDbLine
 10
67.09099999999999
 20
-116.215
 11
66.74550849718747
 21
-116.6905282581476
  0
LINE
  5
2F8
100
AcDbEntity
  8
0
  6
ByLayer
 62
  256
370
   -1
100
AcDbLine
 10
66.74550849718747
 20
-116.6905282581476
 11
67.09099999999999
 21
-116.215
  0
LINE
  5
2F9
100
AcDbEntity
  8
0
  6
ByLayer
 62
  256
370
   -1
100
AcDbLine
 10
66.60575424859373
 20
-116.6451193501472
 11
66.74550849718747
 21
-116.6905282581476
  0
LINE
  5
2FA
100
AcDbEntity
  8
0
  6
ByLayer
 62
  256
370
   -1
100
AcDbLine
 10
66.74550849718747
 20
-116.6905282581476
 11
66.60575424859373
 21
-116.6451193501472
  0
LINE
  5
2FB
100
AcDbEntity
  8
0
  6
ByLayer
 62
  256
370
   -1
100
AcDbLine
 10
66.60575424859373
 20
-115.7848806498528
 11
66.74550849718747
 21
-115.7394717418524
  0
LINE
  5
2FC
100
AcDbEntity
  8
0
  6
ByLayer
 62
  256
370
   -1
100
AcDbLine
 10
66.74550849718747
 20
-115.7394717418524
 11
66.60575424859373
 21
-115.7848806498528
  0
LINE
  5
2FD
100
AcDbEntity
  8
0
  6
ByLayer
 62
  256
370
   -1
100
AcDbLine
 10
67.09099999999999
 20
-116.215
 11
67.09099999999999
 21
-116.215
  0
LINE
  5
2FE
100
AcDbEntity
  8
0
  6
ByLayer
 62
  256
370
   -1
100
AcDbLine
 10
67.09099999999999
 20
-116.215
 11
66.74550849718747
 21
-115.7394717418524
  0
LINE
  5
2FF
100
AcDbEntity
  8
0
  6
ByLayer
 62
  256
370
   -1
100
AcDbLine
 10
66.74550849718747
 20
-115.7394717418524
 11
67.09099999999999
 21
-116.215
  0
LINE
  5
300
100
AcDbEntity
  8
0
  6
ByLayer
 62
  256
370
   -1
100
AcDbLine
 10
66.09099999999999
 20
-116.215
 11
66.09099999999999
 21
-116.215
  0
LINE
  5
301
100
AcDbEntity
  8
0
  6
ByLayer
 62
  256
370
   -1
100
AcDbLine
 10
66.09099999999999
 20
-116.215
 11
66.18649150281252
 21
-115.9211073738538
  0
LINE
  5
302
100
AcDbEntity
  8
0
  6
ByLayer
 62
  256
370
   -1
100
AcDbLine
 10
66.18649150281252
 20
-115.9211073738538
 11
66.09099999999999
 21
-116.215
  0
LINE
  5
303
100
AcDbEntity
  8
0
  6
ByLayer
 62
  256
370
   -1
100
AcDbLine
 10
66.60575424859373
 20
-115.7848806498528
 11
66.18649150281252
 21
-115.9211073738538
  0
LINE
  5
304
100
AcDbEntity
  8
0
  6
ByLayer
 62
  256
370
   -1
100
AcDbLine
 10
66.18649150281252
 20
-115.9211073738538
 11
66.60575424859373
 21
-115.7848806498528
  0
LINE
  5
305
100
AcDbEntity
  8
0
  6
ByLayer
 62
  256
370
   -1
100
AcDbLine
 10
64.06575424859375
 20
-116.6451193501472
 11
63.64649150281254
 21
-116.5088926261462
  0
LINE
  5
306
100
AcDbEntity
  8
0
  6
ByLayer
 62
  256
370
   -1
100
AcDbLine
 10
63.64649150281254
 20
-116.5088926261462
 11
64.06575424859375
 21
-116.6451193501472
  0
LINE
  5
307
100
AcDbEntity
  8
0
  6
ByLayer
 62
  256
370
   -1
100
AcDbLine
 10
63.55100000000002
 20
-116.215
 11
63.55100000000002
 21
-116.215
  0
LINE
  5
308
100
AcDbEntity
  8
0
  6
ByLayer
 62
  256
370
   -1
100
AcDbLine
 10
63.55100000000002
 20
-116.215
 11
63.64649150281254
 21
-116.5088926261462
  0
LINE
  5
309
100
AcDbEntity
  8
0
  6
ByLayer
 62
  256
370
   -1
100
AcDbLine
 10
63.64649150281254
 20
-116.5088926261462
 11
63.55100000000002
 21
-116.215
  0
LINE
  5
30A
100
AcDbEntity
  8
0
  6
ByLayer
 62
  256
370
   -1
100
AcDbLine
 10
64.55100000000002
 20
-116.215
 11
64.55100000000002
 21
-116.215
  0
LINE
  5
30B
100
AcDbEntity
  8
0
  6
ByLayer
 62
  256
370
   -1
100
AcDbLine
 10
64.55100000000002
 20
-116.215
 11
64.20550849718749
 21
-116.6905282581476
  0
LINE
  5
30C
100
AcDbEntity
  8
0
  6
ByLayer
 62
  256
370
   -1
100
AcDbLine
 10
64.20550849718749
 20
-116.6905282581476
 11
64.55100000000002
 21
-116.215
  0
LINE
  5
30D
100
AcDbEntity
  8
0
  6
ByLayer
 62
  256
370
   -1
100
AcDbLine
 10
64.06575424859375
 20
-116.6451193501472
 11
64.20550849718749
 21
-116.6905282581476
  0
LINE
  5
30E
100
AcDbEntity
  8
0
  6
ByLayer
 62
  256
370
   -1
100
AcDbLine
 10
64.20550849718749
 20
-116.6905282581476
 11
64.06575424859375
 21
-116.6451193501472
  0
LINE
  5
30F
100
AcDbEntity
  8
0
  6
ByLayer
 62
  256
370
   -1
100
AcDbLine
 10
64.06575424859375
 20
-115.7848806498528
 11
64.20550849718749
 21
-115.7394717418524
  0
LINE
  5
310
100
AcDbEntity
  8
0
  6
ByLayer
 62
  256
370
   -1
100
AcDbLine
 10
64.20550849718749
 20
-115.7394717418524
 11
64.06575424859375
 21
-115.7848806498528
  0
LINE
  5
311
100
AcDbEntity
  8
0
  6
ByLayer
 62
  256
370
   -1
100
AcDbLine
 10
64.55100000000002
 20
-116.215
 11
64.55100000000002
 21
-116.215
  0
LINE
  5
312
100
AcDbEntity
  8
0
  6
ByLayer
 62
  256
370
   -1
100
AcDbLine
 10
64.55100000000002
 20
-116.215
 11
64.20550849718749
 21
-115.7394717418524
  0
LINE
  5
313
100
AcDbEntity
  8
0
  6
ByLayer
 62
  256
370
   -1
100
AcDbLine
 10
64.20550849718749
 20
-115.7394717418524
 11
64.55100000000002
 21
-116.215
  0
LINE
  5
314
100
AcDbEntity
  8
0
  6
ByLayer
 62
  256
370
   -1
100
AcDbLine
 10
63.55100000000002
 20
-116.215
 11
63.55100000000002
 21
-116.215
  0
LINE
  5
315
100
AcDbEntity
  8
0
  6
ByLayer
 62
  256
370
   -1
100
AcDbLine
 10
63.55100000000002
 20
-116.215
 11
63.64649150281254
 21
-115.9211073738538
  0
LINE
  5
316
100
AcDbEntity
  8
0
  6
ByLayer
 62
  256
370
   -1
100
AcDbLine
 10
63.64649150281254
 20
-115.9211073738538
 11
63.55100000000002
 21
-116.215
  0
LINE
  5
317
100
AcDbEntity
  8
0
  6
ByLayer
 62
  256
370
   -1
100
AcDbLine
 10
64.06575424859375
 20
-115.7848806498528
 11
63.64649150281254
 21
-115.9211073738538
  0
LINE
  5
318
100
AcDbEntity
  8
0
  6
ByLayer
 62
  256
370
   -1
100
AcDbLine
 10
63.64649150281254
 20
-115.9211073738538
 11
64.06575424859375
 21
-115.7848806498528
  0
LINE
  5
319
100
AcDbEntity
  8
0
  6
ByLayer
 62
  256
370
   -1
100
AcDbLine
 10
58.98575424859374
 20
-116.6451193501472
 11
58.56649150281253
 21
-116.5088926261462
  0
LINE
  5
31A
100
AcDbEntity
  8
0
  6
ByLayer
 62
  256
370
   -1
100
AcDbLine
 10
58.56649150281253
 20
-116.5088926261462
 11
58.98575424859374
 21
-116.6451193501472
  0
LINE
  5
31B
100
AcDbEntity
  8
0
  6
ByLayer
 62
  256
370
   -1
100
AcDbLine
 10
58.471
 20
-116.215
 11
58.471
 21
-116.215
  0
LINE
  5
31C
100
AcDbEntity
  8
0
  6
ByLayer
 62
  256
370
   -1
100
AcDbLine
 10
58.471
 20
-116.215
 11
58.56649150281253
 21
-116.5088926261462
  0
LINE
  5
31D
100
AcDbEntity
  8
0
  6
ByLayer
 62
  256
370
   -1
100
AcDbLine
 10
58.56649150281253
 20
-116.5088926261462
 11
58.471
 21
-116.215
  0
LINE
  5
31E
100
AcDbEntity
  8
0
  6
ByLayer
 62
  256
370
   -1
100
AcDbLine
 10
59.471
 20
-116.215
 11
59.471
 21
-116.215
  0
LINE
  5
31F
100
AcDbEntity
  8
0
  6
ByLayer
 62
  256
370
   -1
100
AcDbLine
 10
59.471
 20
-116.215
 11
59.12550849718748
 21
-116.6905282581476
  0
LINE
  5
320
100
AcDbEntity
  8
0
  6
ByLayer
 62
  256
370
   -1
100
AcDbLine
 10
59.12550849718748
 20
-116.6905282581476
 11
59.471
 21
-116.215
  0
LINE
  5
321
100
AcDbEntity
  8
0
  6
ByLayer
 62
  256
370
   -1
100
AcDbLine
 10
58.98575424859374
 20
-116.6451193501472
 11
59.12550849718748
 21
-116.6905282581476
  0
LINE
  5
322
100
AcDbEntity
  8
0
  6
ByLayer
 62
  256
370
   -1
100
AcDbLine
 10
59.12550849718748
 20
-116.6905282581476
 11
58.98575424859374
 21
-116.6451193501472
  0
LINE
  5
323
100
AcDbEntity
  8
0
  6
ByLayer
 62
  256
370
   -1
100
AcDbLine
 10
58.98575424859374
 20
-115.7848806498528
 11
59.12550849718748
 21
-115.7394717418524
  0
LINE
  5
324
100
AcDbEntity
  8
0
  6
ByLayer
 62
  256
370
   -1
100
AcDbLine
 10
59.12550849718748
 20
-115.7394717418524
 11
58.98575424859374
 21
-115.7848806498528
  0
LINE
  5
325
100
AcDbEntity
  8
0
  6
ByLayer
 62
  256
370
   -1
100
AcDbLine
 10
59.471
 20
-116.215
 11
59.471
 21
-116.215
  0
LINE
  5
326
100
AcDbEntity
  8
0
  6
ByLayer
 62
  256
370
   -1
100
AcDbLine
 10
59.471
 20
-116.215
 11
59.12550849718748
 21
-115.7394717418524
  0
LINE
  5
327
100
AcDbEntity
  8
0
  6
ByLayer
 62
  256
370
   -1
100
AcDbLine
 10
59.12550849718748
 20
-115.7394717418524
 11
59.471
 21
-116.215
  0
LINE
  5
328
100
AcDbEntity
  8
0
  6
ByLayer
 62
  256
370
   -1
100
AcDbLine
 10
58.471
 20
-116.215
 11
58.471
 21
-116.215
  0
LINE
  5
329
100
AcDbEntity
  8
0
  6
ByLayer
 62
  256
370
   -1
100
AcDbLine
 10
58.471
 20
-116.215
 11
58.56649150281253
 21
-115.9211073738538
  0
LINE
  5
32A
100
AcDbEntity
  8
0
  6
ByLayer
 62
  256
370
   -1
100
AcDbLine
 10
58.56649150281253
 20
-115.9211073738538
 11
58.471
 21
-116.215
  0
LINE
  5
32B
100
AcDbEntity
  8
0
  6
ByLayer
 62
  256
370
   -1
100
AcDbLine
 10
58.98575424859374
 20
-115.7848806498528
 11
58.56649150281253
 21
-115.9211073738538
  0
LINE
  5
32C
100
AcDbEntity
  8
0
  6
ByLayer
 62
  256
370
   -1
100
AcDbLine
 10
58.56649150281253
 20
-115.9211073738538
 11
58.98575424859374
 21
-115.7848806498528
  0
LINE
  5
32D
100
AcDbEntity
  8
0
  6
ByLayer
 62
  256
370
   -1
100
AcDbLine
 10
69.14575424859373
 20
-116.6451193501472
 11
68.72649150281252
 21
-116.5088926261462
  0
LINE
  5
32E
100
AcDbEntity
  8
0
  6
ByLayer
 62
  256
370
   -1
100
AcDbLine
 10
68.72649150281252
 20
-116.5088926261462
 11
69.14575424859373
 21
-116.6451193501472
  0
LINE
  5
32F
100
AcDbEntity
  8
0
  6
ByLayer
 62
  256
370
   -1
100
AcDbLine
 10
68.631
 20
-116.215
 11
68.631
 21
-116.215
  0
LINE
  5
330
100
AcDbEntity
  8
0
  6
ByLayer
 62
  256
370
   -1
100
AcDbLine
 10
68.631
 20
-116.215
 11
68.72649150281252
 21
-116.5088926261462
  0
LINE
  5
331
100
AcDbEntity
  8
0
  6
ByLayer
 62
  256
370
   -1
100
AcDbLine
 10
68.72649150281252
 20
-116.5088926261462
 11
68.631
 21
-116.215
  0
LINE
  5
332
100
AcDbEntity
  8
0
  6
ByLayer
 62
  256
370
   -1
100
AcDbLine
 10
69.631
 20
-116.215
 11
69.631
 21
-116.215
  0
LINE
  5
333
100
AcDbEntity
  8
0
  6
ByLayer
 62
  256
370
   -1
100
AcDbLine
 10
69.631
 20
-116.215
 11
69.28550849718748
 21
-116.6905282581476
  0
LINE
  5
334
100
AcDbEntity
  8
0
  6
ByLayer
 62
  256
370
   -1
100
AcDbLine
 10
69.28550849718748
 20
-116.6905282581476
 11
69.631
 21
-116.215
  0
LINE
  5
335
100
AcDbEntity
  8
0
  6
ByLayer
 62
  256
370
   -1
100
AcDbLine
 10
69.14575424859373
 20
-116.6451193501472
 11
69.28550849718748
 21
-116.6905282581476
  0
LINE
  5
336
100
AcDbEntity
  8
0
  6
ByLayer
 62
  256
370
   -1
100
AcDbLine
 10
69.28550849718748
 20
-116.6905282581476
 11
69.14575424859373
 21
-116.6451193501472
  0
LINE
  5
337
100
AcDbEntity
  8
0
  6
ByLayer
 62
  256
370
   -1
100
AcDbLine
 10
69.14575424859373
 20
-115.7848806498528
 11
69.28550849718748
 21
-115.7394717418524
  0
LINE
  5
338
100
AcDbEntity
  8
0
  6
ByLayer
 62
  256
370
   -1
100
AcDbLine
 10
69.28550849718748
 20
-115.7394717418524
 11
69.14575424859373
 21
-115.7848806498528
  0
LINE
  5
339
100
AcDbEntity
  8
0
  6
ByLayer
 62
  256
370
   -1
100
AcDbLine
 10
69.631
 20
-116.215
 11
69.631
 21
-116.215
  0
LINE
  5
33A
100
AcDbEntity
  8
0
  6
ByLayer
 62
  256
370
   -1
100
AcDbLine
 10
69.631
 20
-116.215
 11
69.28550849718748
 21
-115.7394717418524
  0
LINE
  5
33B
100
AcDbEntity
  8
0
  6
ByLayer
 62
  256
370
   -1
100
AcDbLine
 10
69.28550849718748
 20
-115.7394717418524
 11
69.631
 21
-116.215
  0
LINE
  5
33C
100
AcDbEntity
  8
0
  6
ByLayer
 62
  256
370
   -1
100
AcDbLine
 10
68.631
 20
-116.215
 11
68.631
 21
-116.215
  0
LINE
  5
33D
100
AcDbEntity
  8
0
  6
ByLayer
 62
  256
370
   -1
100
AcDbLine
 10
68.631
 20
-116.215
 11
68.72649150281252
 21
-115.9211073738538
  0
LINE
  5
33E
100
AcDbEntity
  8
0
  6
ByLayer
 62
  256
370
   -1
100
AcDbLine
 10
68.72649150281252
 20
-115.9211073738538
 11
68.631
 21
-116.215
  0
LINE
  5
33F
100
AcDbEntity
  8
0
  6
ByLayer
 62
  256
370
   -1
100
AcDbLine
 10
69.14575424859373
 20
-115.7848806498528
 11
68.72649150281252
 21
-115.9211073738538
  0
LINE
  5
340
100
AcDbEntity
  8
0
  6
ByLayer
 62
  256
370
   -1
100
AcDbLine
 10
68.72649150281252
 20
-115.9211073738538
 11
69.14575424859373
 21
-115.7848806498528
  0
LINE
  5
341
100
AcDbEntity
  8
0
  6
ByLayer
 62
  256
370
   -1
100
AcDbLine
 10
34.99455764746873
 20
-105.8132148302651
 11
34.23988470506255
 21
-105.5680067270632
  0
LINE
  5
342
100
AcDbEntity
  8
0
  6
ByLayer
 62
  256
370
   -1
100
AcDbLine
 10
34.23988470506255
 20
-105.5680067270632
 11
34.99455764746873
 21
-105.8132148302651
  0
LINE
  5
343
100
AcDbEntity
  8
0
  6
ByLayer
 62
  256
370
   -1
100
AcDbLine
 10
34.068
 20
-105.039
 11
34.068
 21
-105.039
  0
LINE
  5
344
100
AcDbEntity
  8
0
  6
ByLayer
 62
  256
370
   -1
100
AcDbLine
 10
34.068
 20
-105.039
 11
34.23988470506255
 21
-105.5680067270632
  0
LINE
  5
345
100
AcDbEntity
  8
0
  6
ByLayer
 62
  256
370
   -1
100
AcDbLine
 10
34.23988470506255
 20
-105.5680067270632
 11
34.068
 21
-105.039
  0
LINE
  5
346
100
AcDbEntity
  8
0
  6
ByLayer
 62
  256
370
   -1
100
AcDbLine
 10
35.868
 20
-105.039
 11
35.868
 21
-105.039
  0
LINE
  5
347
100
AcDbEntity
  8
0
  6
ByLayer
 62
  256
370
   -1
100
AcDbLine
 10
35.868
 20
-105.039
 11
35.24611529493745
 21
-105.8949508646657
  0
LINE
  5
348
100
AcDbEntity
  8
0
  6
ByLayer
 62
  256
370
   -1
100
AcDbLine
 10
35.24611529493745
 20
-105.8949508646657
 11
35.868
 21
-105.039
  0
LINE
  5
349
100
AcDbEntity
  8
0
  6
ByLayer
 62
  256
370
   -1
100
AcDbLine
 10
34.99455764746873
 20
-105.8132148302651
 11
35.24611529493745
 21
-105.8949508646657
  0
LINE
  5
34A
100
AcDbEntity
  8
0
  6
ByLayer
 62
  256
370
   -1
100
AcDbLine
 10
35.24611529493745
 20
-105.8949508646657
 11
34.99455764746873
 21
-105.8132148302651
  0
LINE
  5
34B
100
AcDbEntity
  8
0
  6
ByLayer
 62
  256
370
   -1
100
AcDbLine
 10
34.99455764746873
 20
-104.264785169735
 11
35.24611529493745
 21
-104.1830491353344
  0
LINE
  5
34C
100
AcDbEntity
  8
0
  6
ByLayer
 62
  256
370
   -1
100
AcDbLine
 10
35.24611529493745
 20
-104.1830491353344
 11
34.99455764746873
 21
-104.264785169735
  0
LINE
  5
34D
100
AcDbEntity
  8
0
  6
ByLayer
 62
  256
370
   -1
100
AcDbLine
 10
35.868
 20
-105.039
 11
35.868
 21
-105.039
  0
LINE
  5
34E
100
AcDbEntity
  8
0
  6
ByLayer
 62
  256
370
   -1
100
AcDbLine
 10
35.868
 20
-105.039
 11
35.24611529493745
 21
-104.1830491353344
  0
LINE
  5
34F
100
AcDbEntity
  8
0
  6
ByLayer
 62
  256
370
   -1
100
AcDbLine
 10
35.24611529493745
 20
-104.1830491353344
 11
35.868
 21
-105.039
  0
LINE
  5
350
100
AcDbEntity
  8
0
  6
ByLayer
 62
  256
370
   -1
100
AcDbLine
 10
34.068
 20
-105.039
 11
34.068
 21
-105.039
  0
LINE
  5
351
100
AcDbEntity
  8
0
  6
ByLayer
 62
  256
370
   -1
100
AcDbLine
 10
34.068
 20
-105.039
 11
34.23988470506255
 21
-104.5099932729368
  0
LINE
  5
352
100
AcDbEntity
  8
0
  6
ByLayer
 62
  256
370
   -1
100
AcDbLine
 10
34.23988470506255
 20
-104.5099932729368
 11
34.068
 21
-105.039
  0
LINE
  5
353
100
AcDbEntity
  8
0
  6
ByLayer
 62
  256
370
   -1
100
AcDbLine
 10
34.99455764746873
 20
-104.264785169735
 11
34.23988470506255
 21
-104.5099932729368
  0
LINE
  5
354
100
AcDbEntity
  8
0
  6
ByLayer
 62
  256
370
   -1
100
AcDbLine
 10
34.23988470506255
 20
-104.5099932729368
 11
34.99455764746873
 21
-104.264785169735
  0
LINE
  5
355
100
AcDbEntity
  8
0
  6
ByLayer
 62
  256
370
   -1
100
AcDbLine
 10
67.88755764746875
 20
-97.30421483026504
 11
67.13288470506257
 21
-97.05900672706322
  0
LINE
  5
356
100
AcDbEntity
  8
0
  6
ByLayer
 62
  256
370
   -1
100
AcDbLine
 10
67.13288470506257
 20
-97.05900672706322
 11
67.88755764746875
 21
-97.30421483026504
  0
LINE
  5
357
100
AcDbEntity
  8
0
  6
ByLayer
 62
  256
370
   -1
100
AcDbLine
 10
66.96100000000001
 20
-96.53
 11
66.96100000000001
 21
-96.53
  0
LINE
  5
358
100
AcDbEntity
  8
0
  6
ByLayer
 62
  256
370
   -1
100
AcDbLine
 10
66.96100000000001
 20
-96.53
 11
67.13288470506257
 21
-97.05900672706322
  0
LINE
  5
359
100
AcDbEntity
  8
0
  6
ByLayer
 62
  256
370
   -1
100
AcDbLine
 10
67.13288470506257
 20
-97.05900672706322
 11
66.96100000000001
 21
-96.53
  0
LINE
  5
35A
100
AcDbEntity
  8
0
  6
ByLayer
 62
  256
370
   -1
100
AcDbLine
 10
68.76100000000002
 20
-96.53
 11
68.76100000000002
 21
-96.53
  0
LINE
  5
35B
100
AcDbEntity
  8
0
  6
ByLayer
 62
  256
370
   -1
100
AcDbLine
 10
68.76100000000002
 20
-96.53
 11
68.13911529493747
 21
-97.38595086466565
  0
LINE
  5
35C
100
AcDbEntity
  8
0
  6
ByLayer
 62
  256
370
   -1
100
AcDbLine
 10
68.13911529493747
 20
-97.38595086466565
 11
68.76100000000002
 21
-96.53
  0
LINE
  5
35D
100
AcDbEntity
  8
0
  6
ByLayer
 62
  256
370
   -1
100
AcDbLine
 10
67.88755764746875
 20
-97.30421483026504
 11
68.13911529493747
 21
-97.38595086466565
  0
LINE
  5
35E
100
AcDbEntity
  8
0
  6
ByLayer
 62
  256
370
   -1
100
AcDbLine
 10
68.13911529493747
 20
-97.38595086466565
 11
67.88755764746875
 21
-97.30421483026504
  0
LINE
  5
35F
100
AcDbEntity
  8
0
  6
ByLayer
 62
  256
370
   -1
100
AcDbLine
 10
67.88755764746875
 20
-95.75578516973496
 11
68.13911529493747
 21
-95.67404913533436
  0
LINE
  5
360
100
AcDbEntity
  8
0
  6
ByLayer
 62
  256
370
   -1
100
AcDbLine
 10
68.13911529493747
 20
-95.67404913533436
 11
67.88755764746875
 21
-95.75578516973496
  0
LINE
  5
361
100
AcDbEntity
  8
0
  6
ByLayer
 62
  256
370
   -1
100
AcDbLine
 10
68.76100000000002
 20
-96.53
 11
68.76100000000002
 21
-96.53
  0
LINE
  5
362
100
AcDbEntity
  8
0
  6
ByLayer
 62
  256
370
   -1
100
AcDbLine
 10
68.76100000000002
 20
-96.53
 11
68.13911529493747
 21
-95.67404913533436
  0
LINE
  5
363
100
AcDbEntity
  8
0
  6
ByLayer
 62
  256
370
   -1
100
AcDbLine
 10
68.13911529493747
 20
-95.67404913533436
 11
68.76100000000002
 21
-96.53
  0
LINE
  5
364
100
AcDbEntity
  8
0
  6
ByLayer
 62
  256
370
   -1
100
AcDbLine
 10
66.96100000000001
 20
-96.53
 11
66.96100000000001
 21
-96.53
  0
LINE
  5
365
100
AcDbEntity
  8
0
  6
ByLayer
 62
  256
370
   -1
100
AcDbLine
 10
66.96100000000001
 20
-96.53
 11
67.13288470506257
 21
-96.00099327293678
  0
LINE
  5
366
100
AcDbEntity
  8
0
  6
ByLayer
 62
  256
370
   -1
100
AcDbLine
 10
67.13288470506257
 20
-96.00099327293678
 11
66.96100000000001
 21
-96.53
  0
LINE
  5
367
100
AcDbEntity
  8
0
  6
ByLayer
 62
  256
370
   -1
100
AcDbLine
 10
67.88755764746875
 20
-95.75578516973496
 11
67.13288470506257
 21
-96.00099327293678
  0
LINE
  5
368
100
AcDbEntity
  8
0
  6
ByLayer
 62
  256
370
   -1
100
AcDbLine
 10
67.13288470506257
 20
-96.00099327293678
 11
67.88755764746875
 21
-95.75578516973496
  0
LINE
  5
369
100
AcDbEntity
  8
0
  6
ByLayer
 62
  256
370
   -1
100
AcDbLine
 10
76.76575424859374
 20
-116.6451193501472
 11
76.34649150281253
 21
-116.5088926261462
  0
LINE
  5
36A
100
AcDbEntity
  8
0
  6
ByLayer
 62
  256
370
   -1
100
AcDbLine
 10
76.34649150281253
 20
-116.5088926261462
 11
76.76575424859374
 21
-116.6451193501472
  0
LINE
  5
36B
100
AcDbEntity
  8
0
  6
ByLayer
 62
  256
370
   -1
100
AcDbLine
 10
76.251
 20
-116.215
 11
76.251
 21
-116.215
  0
LINE
  5
36C
100
AcDbEntity
  8
0
  6
ByLayer
 62
  256
370
   -1
100
AcDbLine
 10
76.251
 20
-116.215
 11
76.34649150281253
 21
-116.5088926261462
  0
LINE
  5
36D
100
AcDbEntity
  8
0
  6
ByLayer
 62
  256
370
   -1
100
AcDbLine
 10
76.34649150281253
 20
-116.5088926261462
 11
76.251
 21
-116.215
  0
LINE
  5
36E
100
AcDbEntity
  8
0
  6
ByLayer
 62
  256
370
   -1
100
AcDbLine
 10
77.251
 20
-116.215
 11
77.251
 21
-116.215
  0
LINE
  5
36F
100
AcDbEntity
  8
0
  6
ByLayer
 62
  256
370
   -1
100
AcDbLine
 10
77.251
 20
-116.215
 11
76.90550849718748
 21
-116.6905282581476
  0
LINE
  5
370
100
AcDbEntity
  8
0
  6
ByLayer
 62
  256
370
   -1
100
AcDbLine
 10
76.90550849718748
 20
-116.6905282581476
 11
77.251
 21
-116.215
  0
LINE
  5
371
100
AcDbEntity
  8
0
  6
ByLayer
 62
  256
370
   -1
100
AcDbLine
 10
76.76575424859374
 20
-116.6451193501472
 11
76.90550849718748
 21
-116.6905282581476
  0
LINE
  5
372
100
AcDbEntity
  8
0
  6
ByLayer
 62
  256
370
   -1
100
AcDbLine
 10
76.90550849718748
 20
-116.6905282581476
 11
76.76575424859374
 21
-116.6451193501472
  0
LINE
  5
373
100
AcDbEntity
  8
0
  6
ByLayer
 62
  256
370
   -1
100
AcDbLine
 10
76.76575424859374
 20
-115.7848806498528
 11
76.90550849718748
 21
-115.7394717418524
  0
LINE
  5
374
100
AcDbEntity
  8
0
  6
ByLayer
 62
  256
370
   -1
100
AcDbLine
 10
76.90550849718748
 20
-115.7394717418524
 11
76.76575424859374
 21
-115.7848806498528
  0
LINE
  5
375
100
AcDbEntity
  8
0
  6
ByLayer
 62
  256
370
   -1
100
AcDbLine
 10
77.251
 20
-116.215
 11
77.251
 21
-116.215
  0
LINE
  5
376
100
AcDbEntity
  8
0
  6
ByLayer
 62
  256
370
   -1
100
AcDbLine
 10
77.251
 20
-116.215
 11
76.90550849718748
 21
-115.7394717418524
  0
LINE
  5
377
100
AcDbEntity
  8
0
  6
ByLayer
 62
  256
370
   -1
100
AcDbLine
 10
76.90550849718748
 20
-115.7394717418524
 11
77.251
 21
-116.215
  0
LINE
  5
378
100
AcDbEntity
  8
0
  6
ByLayer
 62
  256
370
   -1
100
AcDbLine
 10
76.251
 20
-116.215
 11
76.251
 21
-116.215
  0
LINE
  5
379
100
AcDbEntity
  8
0
  6
ByLayer
 62
  256
370
   -1
100
AcDbLine
 10
76.251
 20
-116.215
 11
76.34649150281253
 21
-115.9211073738538
  0
LINE
  5
37A
100
AcDbEntity
  8
0
  6
ByLayer
 62
  256
370
   -1
100
AcDbLine
 10
76.34649150281253
 20
-115.9211073738538
 11
76.251
 21
-116.215
  0
LINE
  5
37B
100
AcDbEntity
  8
0
  6
ByLayer
 62
  256
370
   -1
100
AcDbLine
 10
76.76575424859374
 20
-115.7848806498528
 11
76.34649150281253
 21
-115.9211073738538
  0
LINE
  5
37C
100
AcDbEntity
  8
0
  6
ByLayer
 62
  256
370
   -1
100
AcDbLine
 10
76.34649150281253
 20
-115.9211073738538
 11
76.76575424859374
 21
-115.7848806498528
  0
LINE
  5
37D
100
AcDbEntity
  8
0
  6
ByLayer
 62
  256
370
   -1
100
AcDbLine
 10
40.96355764746872
 20
-166.0112148302651
 11
40.20888470506254
 21
-165.7660067270633
  0
LINE
  5
37E
100
AcDbEntity
  8
0
  6
ByLayer
 62
  256
370
   -1
100
AcDbLine
 10
40.20888470506254
 20
-165.7660067270633
 11
40.96355764746872
 21
-166.0112148302651
  0
LINE
  5
37F
100
AcDbEntity
  8
0
  6
ByLayer
 62
  256
370
   -1
100
AcDbLine
 10
40.037
 20
-165.237
 11
40.037
 21
-165.237
  0
LINE
  5
380
100
AcDbEntity
  8
0
  6
ByLayer
 62
  256
370
   -1
100
AcDbLine
 10
40.037
 20
-165.237
 11
40.20888470506254
 21
-165.7660067270633
  0
LINE
  5
381
100
AcDbEntity
  8
0
  6
ByLayer
 62
  256
370
   -1
100
AcDbLine
 10
40.20888470506254
 20
-165.7660067270633
 11
40.037
 21
-165.237
  0
LINE
  5
382
100
AcDbEntity
  8
0
  6
ByLayer
 62
  256
370
   -1
100
AcDbLine
 10
41.837
 20
-165.237
 11
41.837
 21
-165.237
  0
LINE
  5
383
100
AcDbEntity
  8
0
  6
ByLayer
 62
  256
370
   -1
100
AcDbLine
 10
41.837
 20
-165.237
 11
41.21511529493745
 21
-166.0929508646657
  0
LINE
  5
384
100
AcDbEntity
  8
0
  6
ByLayer
 62
  256
370
   -1
100
AcDbLine
 10
41.21511529493745
 20
-166.0929508646657
 11
41.837
 21
-165.237
  0
LINE
  5
385
100
AcDbEntity
  8
0
  6
ByLayer
 62
  256
370
   -1
100
AcDbLine
 10
40.96355764746872
 20
-166.0112148302651
 11
41.21511529493745
 21
-166.0929508646657
  0
LINE
  5
386
100
AcDbEntity
  8
0
  6
ByLayer
 62
  256
370
   -1
100
AcDbLine
 10
41.21511529493745
 20
-166.0929508646657
 11
40.96355764746872
 21
-166.0112148302651
  0
LINE
  5
387
100
AcDbEntity
  8
0
  6
ByLayer
 62
  256
370
   -1
100
AcDbLine
 10
40.96355764746872
 20
-164.462785169735
 11
41.21511529493745
 21
-164.3810491353344
  0
LINE
  5
388
100
AcDbEntity
  8
0
  6
ByLayer
 62
  256
370
   -1
100
AcDbLine
 10
41.21511529493745
 20
-164.3810491353344
 11
40.96355764746872
 21
-164.462785169735
  0
LINE
  5
389
100
AcDbEntity
  8
0
  6
ByLayer
 62
  256
370
   -1
100
AcDbLine
 10
41.837
 20
-165.237
 11
41.837
 21
-165.237
  0
LINE
  5
38A
100
AcDbEntity
  8
0
  6
ByLayer
 62
  256
370
   -1
100
AcDbLine
 10
41.837
 20
-165.237
 11
41.21511529493745
 21
-164.3810491353344
  0
LINE
  5
38B
100
AcDbEntity
  8
0
  6
ByLayer
 62
  256
370
   -1
100
AcDbLine
 10
41.21511529493745
 20
-164.3810491353344
 11
41.837
 21
-165.237
  0
LINE
  5
38C
100
AcDbEntity
  8
0
  6
ByLayer
 62
  256
370
   -1
100
AcDbLine
 10
40.037
 20
-165.237
 11
40.037
 21
-165.237
  0
LINE
  5
38D
100
AcDbEntity
  8
0
  6
ByLayer
 62
  256
370
   -1
100
AcDbLine
 10
40.037
 20
-165.237
 11
40.20888470506254
 21
-164.7079932729368
  0
LINE
  5
38E
100
AcDbEntity
  8
0
  6
ByLayer
 62
  256
370
   -1
100
AcDbLine
 10
40.20888470506254
 20
-164.7079932729368
 11
40.037
 21
-165.237
  0
LINE
  5
38F
100
AcDbEntity
  8
0
  6
ByLayer
 62
  256
370
   -1
100
AcDbLine
 10
40.96355764746872
 20
-164.462785169735
 11
40.20888470506254
 21
-164.7079932729368
  0
LINE
  5
390
100
AcDbEntity
  8
0
  6
ByLayer
 62
  256
370
   -1
100
AcDbLine
 10
40.20888470506254
 20
-164.7079932729368
 11
40.96355764746872
 21
-164.462785169735
  0
ENDSEC
  0
SECTION
  2
OBJECTS
  0
DICTIONARY
  5
C
330
0
100
AcDbDictionary
281
    1
  3
ACAD_GROUP
350
D
  0
DICTIONARY
  5
D
330
C
100
AcDbDictionary
281
    1
  0
ENDSEC
  0
EOF
