ISO-10303-21;
HEADER;
FILE_DESCRIPTION(('FreeCAD Model'),'2;1');
FILE_NAME('Open CASCADE Shape Model','2023-02-14T09:23:52',('BT'),(''),
  'Open CASCADE STEP processor 7.6','FreeCAD','Unknown');
FILE_SCHEMA(('AUTOMOTIVE_DESIGN_CC2 { 1 2 10303 214 -1 1 5 4 }'));
ENDSEC;
DATA;
#1 = APPLICATION_PROTOCOL_DEFINITION('committee draft',
  'automotive_design',1997,#2);
#2 = APPLICATION_CONTEXT(
  'core data for automotive mechanical design processes');
#3 = SHAPE_DEFINITION_REPRESENTATION(#4,#10);
#4 = PRODUCT_DEFINITION_SHAPE('','',#5);
#5 = PRODUCT_DEFINITION('design','',#6,#9);
#6 = PRODUCT_DEFINITION_FORMATION('','',#7);
#7 = PRODUCT('Pad','Pad','',(#8));
#8 = MECHANICAL_CONTEXT('',#2,'mechanical');
#9 = PRODUCT_DEFINITION_CONTEXT('part definition',#2,'design');
#10 = ADVANCED_BREP_SHAPE_REPRESENTATION('',(#11,#15),#258);
#11 = AXIS2_PLACEMENT_3D('',#12,#13,#14);
#12 = CARTESIAN_POINT('',(0.,0.,0.));
#13 = DIRECTION('',(0.,0.,1.));
#14 = DIRECTION('',(1.,0.,-0.));
#15 = MANIFOLD_SOLID_BREP('',#16);
#16 = CLOSED_SHELL('',(#17,#34,#59,#85,#105,#130,#198,#224,#249));
#17 = ADVANCED_FACE('',(#18),#29,.F.);
#18 = FACE_BOUND('',#19,.F.);
#19 = EDGE_LOOP('',(#20));
#20 = ORIENTED_EDGE('',*,*,#21,.T.);
#21 = EDGE_CURVE('',#22,#22,#24,.T.);
#22 = VERTEX_POINT('',#23);
#23 = CARTESIAN_POINT('',(0.3,-7.347880794884E-17,-3.));
#24 = CIRCLE('',#25,0.3);
#25 = AXIS2_PLACEMENT_3D('',#26,#27,#28);
#26 = CARTESIAN_POINT('',(0.,0.,-3.));
#27 = DIRECTION('',(0.,0.,1.));
#28 = DIRECTION('',(1.,0.,0.));
#29 = PLANE('',#30);
#30 = AXIS2_PLACEMENT_3D('',#31,#32,#33);
#31 = CARTESIAN_POINT('',(-3.561042011821E-17,5.558742067634E-18,-3.));
#32 = DIRECTION('',(0.,0.,1.));
#33 = DIRECTION('',(1.,0.,0.));
#34 = ADVANCED_FACE('',(#35),#54,.T.);
#35 = FACE_BOUND('',#36,.T.);
#36 = EDGE_LOOP('',(#37,#45,#52,#53));
#37 = ORIENTED_EDGE('',*,*,#38,.T.);
#38 = EDGE_CURVE('',#22,#39,#41,.T.);
#39 = VERTEX_POINT('',#40);
#40 = CARTESIAN_POINT('',(0.3,-7.327471962526E-16,0.3));
#41 = LINE('',#42,#43);
#42 = CARTESIAN_POINT('',(0.3,0.,-3.));
#43 = VECTOR('',#44,1.);
#44 = DIRECTION('',(0.,-2.22044604925E-16,1.));
#45 = ORIENTED_EDGE('',*,*,#46,.F.);
#46 = EDGE_CURVE('',#39,#39,#47,.T.);
#47 = CIRCLE('',#48,0.3);
#48 = AXIS2_PLACEMENT_3D('',#49,#50,#51);
#49 = CARTESIAN_POINT('',(0.,-7.327471962526E-16,0.3));
#50 = DIRECTION('',(0.,-2.22044604925E-16,1.));
#51 = DIRECTION('',(1.,0.,0.));
#52 = ORIENTED_EDGE('',*,*,#38,.F.);
#53 = ORIENTED_EDGE('',*,*,#21,.T.);
#54 = CYLINDRICAL_SURFACE('',#55,0.3);
#55 = AXIS2_PLACEMENT_3D('',#56,#57,#58);
#56 = CARTESIAN_POINT('',(0.,0.,-3.));
#57 = DIRECTION('',(0.,-2.22044604925E-16,1.));
#58 = DIRECTION('',(1.,0.,0.));
#59 = ADVANCED_FACE('',(#60),#80,.T.);
#60 = FACE_BOUND('',#61,.T.);
#61 = EDGE_LOOP('',(#62,#71,#78,#79));
#62 = ORIENTED_EDGE('',*,*,#63,.T.);
#63 = EDGE_CURVE('',#39,#64,#66,.T.);
#64 = VERTEX_POINT('',#65);
#65 = CARTESIAN_POINT('',(1.,-8.881784197001E-16,1.));
#66 = CIRCLE('',#67,0.7);
#67 = AXIS2_PLACEMENT_3D('',#68,#69,#70);
#68 = CARTESIAN_POINT('',(1.,-6.225289843293E-16,0.3));
#69 = DIRECTION('',(-0.,1.,2.22044604925E-16));
#70 = DIRECTION('',(1.,0.,0.));
#71 = ORIENTED_EDGE('',*,*,#72,.T.);
#72 = EDGE_CURVE('',#64,#64,#73,.T.);
#73 = CIRCLE('',#74,0.3);
#74 = AXIS2_PLACEMENT_3D('',#75,#76,#77);
#75 = CARTESIAN_POINT('',(1.,-9.547918011776E-16,1.3));
#76 = DIRECTION('',(-1.,4.078893220341E-32,-1.836970198721E-16));
#77 = DIRECTION('',(-1.836970198721E-16,-2.22044604925E-16,1.));
#78 = ORIENTED_EDGE('',*,*,#63,.F.);
#79 = ORIENTED_EDGE('',*,*,#46,.T.);
#80 = TOROIDAL_SURFACE('',#81,1.,0.3);
#81 = AXIS2_PLACEMENT_3D('',#82,#83,#84);
#82 = CARTESIAN_POINT('',(1.,-7.327471962526E-16,0.3));
#83 = DIRECTION('',(0.,1.,2.22044604925E-16));
#84 = DIRECTION('',(1.,0.,0.));
#85 = ADVANCED_FACE('',(#86,#97),#100,.F.);
#86 = FACE_BOUND('',#87,.F.);
#87 = EDGE_LOOP('',(#88));
#88 = ORIENTED_EDGE('',*,*,#89,.T.);
#89 = EDGE_CURVE('',#90,#90,#92,.T.);
#90 = VERTEX_POINT('',#91);
#91 = CARTESIAN_POINT('',(1.,0.75,1.3));
#92 = CIRCLE('',#93,0.75);
#93 = AXIS2_PLACEMENT_3D('',#94,#95,#96);
#94 = CARTESIAN_POINT('',(1.,-7.771561172376E-17,1.3));
#95 = DIRECTION('',(1.,1.232595164408E-32,1.110223024625E-16));
#96 = DIRECTION('',(0.,1.,-1.110223024625E-16));
#97 = FACE_BOUND('',#98,.F.);
#98 = EDGE_LOOP('',(#99));
#99 = ORIENTED_EDGE('',*,*,#72,.T.);
#100 = PLANE('',#101);
#101 = AXIS2_PLACEMENT_3D('',#102,#103,#104);
#102 = CARTESIAN_POINT('',(1.,-1.281975124256E-16,1.3));
#103 = DIRECTION('',(1.,-4.93432455389E-17,8.546500828371E-17));
#104 = DIRECTION('',(-8.546500828371E-17,0.,1.));
#105 = ADVANCED_FACE('',(#106),#125,.T.);
#106 = FACE_BOUND('',#107,.F.);
#107 = EDGE_LOOP('',(#108,#116,#123,#124));
#108 = ORIENTED_EDGE('',*,*,#109,.T.);
#109 = EDGE_CURVE('',#90,#110,#112,.T.);
#110 = VERTEX_POINT('',#111);
#111 = CARTESIAN_POINT('',(29.5,0.75,1.3));
#112 = LINE('',#113,#114);
#113 = CARTESIAN_POINT('',(1.,0.75,1.3));
#114 = VECTOR('',#115,1.);
#115 = DIRECTION('',(1.,-1.110223024625E-16,1.110223024625E-16));
#116 = ORIENTED_EDGE('',*,*,#117,.T.);
#117 = EDGE_CURVE('',#110,#110,#118,.T.);
#118 = CIRCLE('',#119,0.75);
#119 = AXIS2_PLACEMENT_3D('',#120,#121,#122);
#120 = CARTESIAN_POINT('',(29.5,-3.241851231905E-15,1.3));
#121 = DIRECTION('',(1.,1.232595164408E-32,1.110223024625E-16));
#122 = DIRECTION('',(0.,1.,-1.110223024625E-16));
#123 = ORIENTED_EDGE('',*,*,#109,.F.);
#124 = ORIENTED_EDGE('',*,*,#89,.F.);
#125 = CYLINDRICAL_SURFACE('',#126,0.75);
#126 = AXIS2_PLACEMENT_3D('',#127,#128,#129);
#127 = CARTESIAN_POINT('',(1.,-7.771561172376E-17,1.3));
#128 = DIRECTION('',(-1.,-1.232595164408E-32,-1.110223024625E-16));
#129 = DIRECTION('',(0.,1.,-1.110223024625E-16));
#130 = ADVANCED_FACE('',(#131,#134),#193,.T.);
#131 = FACE_BOUND('',#132,.T.);
#132 = EDGE_LOOP('',(#133));
#133 = ORIENTED_EDGE('',*,*,#117,.T.);
#134 = FACE_BOUND('',#135,.T.);
#135 = EDGE_LOOP('',(#136));
#136 = ORIENTED_EDGE('',*,*,#137,.T.);
#137 = EDGE_CURVE('',#138,#138,#140,.T.);
#138 = VERTEX_POINT('',#139);
#139 = CARTESIAN_POINT('',(29.5,9.880244282893E-15,0.999714227381));
#140 = B_SPLINE_CURVE_WITH_KNOTS('',6,(#141,#142,#143,#144,#145,#146,
    #147,#148,#149,#150,#151,#152,#153,#154,#155,#156,#157,#158,#159,
    #160,#161,#162,#163,#164,#165,#166,#167,#168,#169,#170,#171,#172,
    #173,#174,#175,#176,#177,#178,#179,#180,#181,#182,#183,#184,#185,
    #186,#187,#188,#189,#190,#191,#192),.UNSPECIFIED.,.T.,.F.,(7,5,5,5,5
    ,5,5,5,5,5,7),(0.,7.463595282126E-02,0.102637240766,0.178641561381,
    0.274646533187,0.327648958646,0.500957892989,0.672365994673,
    0.725368414558,0.821373376936,1.),.UNSPECIFIED.);
#141 = CARTESIAN_POINT('',(29.5,9.80829855797E-15,0.999714227381));
#142 = CARTESIAN_POINT('',(29.5,-2.344703566785E-02,0.999714238563));
#143 = CARTESIAN_POINT('',(29.5,-4.689432550676E-02,1.001914144099));
#144 = CARTESIAN_POINT('',(29.5,-7.008343534731E-02,1.006314219615));
#145 = CARTESIAN_POINT('',(29.5,-9.275687083409E-02,1.01287352599));
#146 = CARTESIAN_POINT('',(29.5,-0.114666508203,1.021511972558));
#147 = CARTESIAN_POINT('',(29.5,-0.143428926516,1.036089353165));
#148 = CARTESIAN_POINT('',(29.5,-0.151135947621,1.040342513606));
#149 = CARTESIAN_POINT('',(29.5,-0.158690906611,1.044865676782));
#150 = CARTESIAN_POINT('',(29.5,-0.166082044014,1.049651980762));
#151 = CARTESIAN_POINT('',(29.5,-0.173298022647,1.054693886524));
#152 = CARTESIAN_POINT('',(29.5,-0.199409308536,1.074339998129));
#153 = CARTESIAN_POINT('',(29.5,-0.21712017316,1.090519630095));
#154 = CARTESIAN_POINT('',(29.5,-0.233242343629,1.108358146349));
#155 = CARTESIAN_POINT('',(29.5,-0.247585030886,1.127656912745));
#156 = CARTESIAN_POINT('',(29.5,-0.259990840177,1.148189924882));
#157 = CARTESIAN_POINT('',(29.5,-0.283416513163,1.196895721652));
#158 = CARTESIAN_POINT('',(29.5,-0.293213311029,1.225658165387));
#159 = CARTESIAN_POINT('',(29.5,-0.299492353826,1.255502618065));
#160 = CARTESIAN_POINT('',(29.5,-0.302117951568,1.285887043217));
#161 = CARTESIAN_POINT('',(29.5,-0.301063035565,1.316253357897));
#162 = CARTESIAN_POINT('',(29.5,-0.293846835421,1.362511741677));
#163 = CARTESIAN_POINT('',(29.5,-0.290184186045,1.378795342479));
#164 = CARTESIAN_POINT('',(29.5,-0.285440229424,1.394816079762));
#165 = CARTESIAN_POINT('',(29.5,-0.279639201612,1.410484896859));
#166 = CARTESIAN_POINT('',(29.5,-0.272815050522,1.425715968122));
#167 = CARTESIAN_POINT('',(29.5,-0.239494864308,1.488528646123));
#168 = CARTESIAN_POINT('',(29.5,-0.203496705385,1.531086087117));
#169 = CARTESIAN_POINT('',(29.5,-0.158536005465,1.565210342812));
#170 = CARTESIAN_POINT('',(29.5,-0.107182572232,1.588633080177));
#171 = CARTESIAN_POINT('',(29.5,-5.265180686366E-02,1.600166164881));
#172 = CARTESIAN_POINT('',(29.5,5.563961737173E-02,1.599519043362));
#173 = CARTESIAN_POINT('',(29.5,0.109432264205,1.587597365087));
#174 = CARTESIAN_POINT('',(29.5,0.160013465118,1.564083657227));
#175 = CARTESIAN_POINT('',(29.5,0.20428591575,1.530150941769));
#176 = CARTESIAN_POINT('',(29.5,0.23977520805,1.488000454755));
#177 = CARTESIAN_POINT('',(29.5,0.272815374357,1.425715265985));
#178 = CARTESIAN_POINT('',(29.5,0.279639485458,1.410484179004));
#179 = CARTESIAN_POINT('',(29.5,0.285440472405,1.394815348925));
#180 = CARTESIAN_POINT('',(29.5,0.290184387514,1.37879460145));
#181 = CARTESIAN_POINT('',(29.5,0.293846994969,1.362510993277));
#182 = CARTESIAN_POINT('',(29.5,0.301063076816,1.316252596504));
#183 = CARTESIAN_POINT('',(29.5,0.302117916,1.285886282637));
#184 = CARTESIAN_POINT('',(29.5,0.299492242236,1.255501867587));
#185 = CARTESIAN_POINT('',(29.5,0.29321312561,1.225657434043));
#186 = CARTESIAN_POINT('',(29.5,0.283416257414,1.196895017947));
#187 = CARTESIAN_POINT('',(29.5,0.246014507358,1.119131088689));
#188 = CARTESIAN_POINT('',(29.5,0.210329752044,1.073995489469));
#189 = CARTESIAN_POINT('',(29.5,0.164824690274,1.037532176369));
#190 = CARTESIAN_POINT('',(29.5,0.112249722603,1.012315449435));
#191 = CARTESIAN_POINT('',(29.5,5.611575877523E-02,0.999714193244));
#192 = CARTESIAN_POINT('',(29.5,9.863809709201E-15,0.999714227381));
#193 = PLANE('',#194);
#194 = AXIS2_PLACEMENT_3D('',#195,#196,#197);
#195 = CARTESIAN_POINT('',(29.5,-3.292333132607E-15,1.3));
#196 = DIRECTION('',(1.,-4.93432455389E-17,8.546500828371E-17));
#197 = DIRECTION('',(-8.546500828371E-17,0.,1.));
#198 = ADVANCED_FACE('',(#199),#219,.T.);
#199 = FACE_BOUND('',#200,.T.);
#200 = EDGE_LOOP('',(#201,#202,#211,#218));
#201 = ORIENTED_EDGE('',*,*,#137,.F.);
#202 = ORIENTED_EDGE('',*,*,#203,.T.);
#203 = EDGE_CURVE('',#138,#204,#206,.T.);
#204 = VERTEX_POINT('',#205);
#205 = CARTESIAN_POINT('',(30.18,-7.327471962526E-16,0.3));
#206 = CIRCLE('',#207,0.7);
#207 = AXIS2_PLACEMENT_3D('',#208,#209,#210);
#208 = CARTESIAN_POINT('',(29.48,1.003561205207E-14,0.3));
#209 = DIRECTION('',(-0.,1.,2.22044604925E-16));
#210 = DIRECTION('',(1.,0.,0.));
#211 = ORIENTED_EDGE('',*,*,#212,.T.);
#212 = EDGE_CURVE('',#204,#204,#213,.T.);
#213 = CIRCLE('',#214,0.3);
#214 = AXIS2_PLACEMENT_3D('',#215,#216,#217);
#215 = CARTESIAN_POINT('',(30.48,-7.327471962526E-16,0.3));
#216 = DIRECTION('',(-2.449293598295E-16,-2.22044604925E-16,1.));
#217 = DIRECTION('',(1.,-5.438524293788E-32,2.449293598295E-16));
#218 = ORIENTED_EDGE('',*,*,#203,.F.);
#219 = TOROIDAL_SURFACE('',#220,1.,0.3);
#220 = AXIS2_PLACEMENT_3D('',#221,#222,#223);
#221 = CARTESIAN_POINT('',(29.48,-7.327471962526E-16,0.3));
#222 = DIRECTION('',(0.,1.,2.22044604925E-16));
#223 = DIRECTION('',(1.,0.,0.));
#224 = ADVANCED_FACE('',(#225),#244,.T.);
#225 = FACE_BOUND('',#226,.T.);
#226 = EDGE_LOOP('',(#227,#235,#242,#243));
#227 = ORIENTED_EDGE('',*,*,#228,.T.);
#228 = EDGE_CURVE('',#204,#229,#231,.T.);
#229 = VERTEX_POINT('',#230);
#230 = CARTESIAN_POINT('',(30.18,-7.347880794884E-17,-3.));
#231 = LINE('',#232,#233);
#232 = CARTESIAN_POINT('',(30.18,-7.327471962526E-16,0.3));
#233 = VECTOR('',#234,1.);
#234 = DIRECTION('',(0.,2.22044604925E-16,-1.));
#235 = ORIENTED_EDGE('',*,*,#236,.F.);
#236 = EDGE_CURVE('',#229,#229,#237,.T.);
#237 = CIRCLE('',#238,0.3);
#238 = AXIS2_PLACEMENT_3D('',#239,#240,#241);
#239 = CARTESIAN_POINT('',(30.48,0.,-3.));
#240 = DIRECTION('',(-3.540467210809E-14,4.440892098501E-16,-1.));
#241 = DIRECTION('',(-1.,-7.861416430741E-30,3.540467210809E-14));
#242 = ORIENTED_EDGE('',*,*,#228,.F.);
#243 = ORIENTED_EDGE('',*,*,#212,.F.);
#244 = CYLINDRICAL_SURFACE('',#245,0.3);
#245 = AXIS2_PLACEMENT_3D('',#246,#247,#248);
#246 = CARTESIAN_POINT('',(30.48,-7.327471962526E-16,0.3));
#247 = DIRECTION('',(0.,2.22044604925E-16,-1.));
#248 = DIRECTION('',(-1.,0.,0.));
#249 = ADVANCED_FACE('',(#250),#253,.T.);
#250 = FACE_BOUND('',#251,.T.);
#251 = EDGE_LOOP('',(#252));
#252 = ORIENTED_EDGE('',*,*,#236,.T.);
#253 = PLANE('',#254);
#254 = AXIS2_PLACEMENT_3D('',#255,#256,#257);
#255 = CARTESIAN_POINT('',(30.48,2.336395212674E-17,-3.));
#256 = DIRECTION('',(-3.540467210809E-14,4.440892098501E-16,-1.));
#257 = DIRECTION('',(-1.,0.,3.540467210809E-14));
#258 = ( GEOMETRIC_REPRESENTATION_CONTEXT(3) 
GLOBAL_UNCERTAINTY_ASSIGNED_CONTEXT((#262)) GLOBAL_UNIT_ASSIGNED_CONTEXT
((#259,#260,#261)) REPRESENTATION_CONTEXT('Context #1',
  '3D Context with UNIT and UNCERTAINTY') );
#259 = ( LENGTH_UNIT() NAMED_UNIT(*) SI_UNIT(.MILLI.,.METRE.) );
#260 = ( NAMED_UNIT(*) PLANE_ANGLE_UNIT() SI_UNIT($,.RADIAN.) );
#261 = ( NAMED_UNIT(*) SI_UNIT($,.STERADIAN.) SOLID_ANGLE_UNIT() );
#262 = UNCERTAINTY_MEASURE_WITH_UNIT(LENGTH_MEASURE(2.E-07),#259,
  'distance_accuracy_value','confusion accuracy');
#263 = PRODUCT_TYPE('part',$,(#7));
#264 = MECHANICAL_DESIGN_GEOMETRIC_PRESENTATION_REPRESENTATION('',(#265,
    #273,#280,#287,#295,#302,#309,#316,#323),#258);
#265 = STYLED_ITEM('color',(#266),#17);
#266 = PRESENTATION_STYLE_ASSIGNMENT((#267));
#267 = SURFACE_STYLE_USAGE(.BOTH.,#268);
#268 = SURFACE_SIDE_STYLE('',(#269));
#269 = SURFACE_STYLE_FILL_AREA(#270);
#270 = FILL_AREA_STYLE('',(#271));
#271 = FILL_AREA_STYLE_COLOUR('',#272);
#272 = COLOUR_RGB('',0.800000010877,0.800000010877,0.800000010877);
#273 = STYLED_ITEM('color',(#274),#34);
#274 = PRESENTATION_STYLE_ASSIGNMENT((#275));
#275 = SURFACE_STYLE_USAGE(.BOTH.,#276);
#276 = SURFACE_SIDE_STYLE('',(#277));
#277 = SURFACE_STYLE_FILL_AREA(#278);
#278 = FILL_AREA_STYLE('',(#279));
#279 = FILL_AREA_STYLE_COLOUR('',#272);
#280 = STYLED_ITEM('color',(#281),#59);
#281 = PRESENTATION_STYLE_ASSIGNMENT((#282));
#282 = SURFACE_STYLE_USAGE(.BOTH.,#283);
#283 = SURFACE_SIDE_STYLE('',(#284));
#284 = SURFACE_STYLE_FILL_AREA(#285);
#285 = FILL_AREA_STYLE('',(#286));
#286 = FILL_AREA_STYLE_COLOUR('',#272);
#287 = STYLED_ITEM('color',(#288),#85);
#288 = PRESENTATION_STYLE_ASSIGNMENT((#289));
#289 = SURFACE_STYLE_USAGE(.BOTH.,#290);
#290 = SURFACE_SIDE_STYLE('',(#291));
#291 = SURFACE_STYLE_FILL_AREA(#292);
#292 = FILL_AREA_STYLE('',(#293));
#293 = FILL_AREA_STYLE_COLOUR('',#294);
#294 = COLOUR_RGB('',3.921568724327E-03,0.,0.);
#295 = STYLED_ITEM('color',(#296),#105);
#296 = PRESENTATION_STYLE_ASSIGNMENT((#297));
#297 = SURFACE_STYLE_USAGE(.BOTH.,#298);
#298 = SURFACE_SIDE_STYLE('',(#299));
#299 = SURFACE_STYLE_FILL_AREA(#300);
#300 = FILL_AREA_STYLE('',(#301));
#301 = FILL_AREA_STYLE_COLOUR('',#294);
#302 = STYLED_ITEM('color',(#303),#130);
#303 = PRESENTATION_STYLE_ASSIGNMENT((#304));
#304 = SURFACE_STYLE_USAGE(.BOTH.,#305);
#305 = SURFACE_SIDE_STYLE('',(#306));
#306 = SURFACE_STYLE_FILL_AREA(#307);
#307 = FILL_AREA_STYLE('',(#308));
#308 = FILL_AREA_STYLE_COLOUR('',#294);
#309 = STYLED_ITEM('color',(#310),#198);
#310 = PRESENTATION_STYLE_ASSIGNMENT((#311));
#311 = SURFACE_STYLE_USAGE(.BOTH.,#312);
#312 = SURFACE_SIDE_STYLE('',(#313));
#313 = SURFACE_STYLE_FILL_AREA(#314);
#314 = FILL_AREA_STYLE('',(#315));
#315 = FILL_AREA_STYLE_COLOUR('',#272);
#316 = STYLED_ITEM('color',(#317),#224);
#317 = PRESENTATION_STYLE_ASSIGNMENT((#318));
#318 = SURFACE_STYLE_USAGE(.BOTH.,#319);
#319 = SURFACE_SIDE_STYLE('',(#320));
#320 = SURFACE_STYLE_FILL_AREA(#321);
#321 = FILL_AREA_STYLE('',(#322));
#322 = FILL_AREA_STYLE_COLOUR('',#272);
#323 = STYLED_ITEM('color',(#324),#249);
#324 = PRESENTATION_STYLE_ASSIGNMENT((#325));
#325 = SURFACE_STYLE_USAGE(.BOTH.,#326);
#326 = SURFACE_SIDE_STYLE('',(#327));
#327 = SURFACE_STYLE_FILL_AREA(#328);
#328 = FILL_AREA_STYLE('',(#329));
#329 = FILL_AREA_STYLE_COLOUR('',#272);
ENDSEC;
END-ISO-10303-21;
