  0
SECTION
  2
HEADER
  9
$ANGBASE
  50
0.0
  9
$ANGDIR
  70
1
  9
$MEASUREMENT
  70
1
  0
ENDSEC
  0
SECTION
  2
TABLES
  0
TABLE
  2
LTYPE
  70
4
  0
LTYPE
  5
40F
  2
CONTINUOUS
  70
0
  3
Solid line
  72
65
  73
0
  40
0.0
  0
LTYPE
  5
410
  2
DASHDOT
 70
0
  3
Dash Dot ____ _ ____ _
 72
65
 73
4
 40
2.0
 49
1.25
 49
-0.25
 49
0.25
 49
-0.25
  0
LTYPE
  5
411
  2
DASHED
 70
0
  3
Dashed __ __ __ __ __
 72
65
 73
2
 40
0.75
 49
0.5
 49
-0.25
  0
LTYPE
  5
43B
  2
DOTTED
 70
0
  3
Dotted .  .  .  .
 72
65
 73
2
 40
0.2
 49
0.0
 49
-0.2
  0
ENDTAB
  0
TABLE
  2
STYLE
  70
4
  0
STYLE
  2
KICAD
  70
0
  40
0
  41
1
  42
1
  50
0
  71
0
  3
isocp.shx
  0
STYLE
  2
KICADB
  70
0
  40
0
  41
1
  42
1
  50
0
  71
0
  3
isocp.shx
  0
STYLE
  2
KICADI
  70
0
  40
0
  41
1
  42
1
  50
15
  71
0
  3
isocp.shx
  0
STYLE
  2
KICADBI
  70
0
  40
0
  41
1
  42
1
  50
15
  71
0
  3
isocp.shx
  0
ENDTAB
  0
TABLE
  2
LAYER
  70
1
  0
LAYER
  2
BLACK
  70
0
  62
7
  6
CONTINUOUS
  0
ENDTAB
  0
ENDSEC
  0
SECTION
  2
ENTITIES
0
LINE
8
BLACK
6
CONTINUOUS
10
147.856
20
-109.352
11
147.86
21
-109.354
0
LINE
8
BLACK
6
CONTINUOUS
10
147.86
20
-109.354
11
147.861
21
-109.358
0
LINE
8
BLACK
6
CONTINUOUS
10
147.861
20
-109.358
11
147.861
21
-110.511
0
LINE
8
BLACK
6
CONTINUOUS
10
147.861
20
-110.511
11
147.86
21
-110.514
0
LINE
8
BLACK
6
CONTINUOUS
10
147.86
20
-110.514
11
147.856
21
-110.516
0
LINE
8
BLACK
6
CONTINUOUS
10
147.856
20
-110.516
11
143.177
21
-110.516
0
LINE
8
BLACK
6
CONTINUOUS
10
143.177
20
-110.516
11
143.174
21
-110.514
0
LINE
8
BLACK
6
CONTINUOUS
10
143.174
20
-110.514
11
143.172
21
-110.511
0
LINE
8
BLACK
6
CONTINUOUS
10
143.172
20
-110.511
11
143.172
21
-109.358
0
LINE
8
BLACK
6
CONTINUOUS
10
143.172
20
-109.358
11
143.174
21
-109.354
0
LINE
8
BLACK
6
CONTINUOUS
10
143.174
20
-109.354
11
143.177
21
-109.352
0
LINE
8
BLACK
6
CONTINUOUS
10
143.177
20
-109.352
11
147.856
21
-109.352
0
LINE
8
BLACK
6
CONTINUOUS
10
165.048
20
-103.479
11
165.048
21
-103.479
0
LINE
8
BLACK
6
CONTINUOUS
10
165.048
20
-103.479
11
165.048
21
-103.479
0
LINE
8
BLACK
6
CONTINUOUS
10
165.048
20
-103.479
11
165.159
21
-103.48
0
LINE
8
BLACK
6
CONTINUOUS
10
165.159
20
-103.48
11
165.159
21
-103.48
0
LINE
8
BLACK
6
CONTINUOUS
10
165.159
20
-103.48
11
165.159
21
-103.48
0
LINE
8
BLACK
6
CONTINUOUS
10
165.159
20
-103.48
11
165.293
21
-103.484
0
LINE
8
BLACK
6
CONTINUOUS
10
165.293
20
-103.484
11
165.293
21
-103.484
0
LINE
8
BLACK
6
CONTINUOUS
10
165.293
20
-103.484
11
165.293
21
-103.484
0
LINE
8
BLACK
6
CONTINUOUS
10
165.293
20
-103.484
11
165.413
21
-103.493
0
LINE
8
BLACK
6
CONTINUOUS
10
165.413
20
-103.493
11
165.413
21
-103.493
0
LINE
8
BLACK
6
CONTINUOUS
10
165.413
20
-103.493
11
165.413
21
-103.493
0
LINE
8
BLACK
6
CONTINUOUS
10
165.413
20
-103.493
11
165.527
21
-103.507
0
LINE
8
BLACK
6
CONTINUOUS
10
165.527
20
-103.507
11
165.527
21
-103.507
0
LINE
8
BLACK
6
CONTINUOUS
10
165.527
20
-103.507
11
165.527
21
-103.507
0
LINE
8
BLACK
6
CONTINUOUS
10
165.527
20
-103.507
11
165.642
21
-103.526
0
LINE
8
BLACK
6
CONTINUOUS
10
165.642
20
-103.526
11
165.642
21
-103.526
0
LINE
8
BLACK
6
CONTINUOUS
10
165.642
20
-103.526
11
165.642
21
-103.526
0
LINE
8
BLACK
6
CONTINUOUS
10
165.642
20
-103.526
11
165.766
21
-103.552
0
LINE
8
BLACK
6
CONTINUOUS
10
165.766
20
-103.552
11
165.766
21
-103.552
0
LINE
8
BLACK
6
CONTINUOUS
10
165.766
20
-103.552
11
165.767
21
-103.552
0
LINE
8
BLACK
6
CONTINUOUS
10
165.767
20
-103.552
11
165.867
21
-103.576
0
LINE
8
BLACK
6
CONTINUOUS
10
165.867
20
-103.576
11
165.867
21
-103.577
0
LINE
8
BLACK
6
CONTINUOUS
10
165.867
20
-103.577
11
165.867
21
-103.576
0
LINE
8
BLACK
6
CONTINUOUS
10
165.867
20
-103.576
11
166.124
21
-103.658
0
LINE
8
BLACK
6
CONTINUOUS
10
166.124
20
-103.658
11
166.124
21
-103.658
0
LINE
8
BLACK
6
CONTINUOUS
10
166.124
20
-103.658
11
166.124
21
-103.658
0
LINE
8
BLACK
6
CONTINUOUS
10
166.124
20
-103.658
11
166.374
21
-103.763
0
LINE
8
BLACK
6
CONTINUOUS
10
166.374
20
-103.763
11
166.375
21
-103.763
0
LINE
8
BLACK
6
CONTINUOUS
10
166.375
20
-103.763
11
166.375
21
-103.763
0
LINE
8
BLACK
6
CONTINUOUS
10
166.375
20
-103.763
11
166.616
21
-103.891
0
LINE
8
BLACK
6
CONTINUOUS
10
166.616
20
-103.891
11
166.616
21
-103.891
0
LINE
8
BLACK
6
CONTINUOUS
10
166.616
20
-103.891
11
166.616
21
-103.891
0
LINE
8
BLACK
6
CONTINUOUS
10
166.616
20
-103.891
11
166.846
21
-104.04
0
LINE
8
BLACK
6
CONTINUOUS
10
166.846
20
-104.04
11
166.846
21
-104.04
0
LINE
8
BLACK
6
CONTINUOUS
10
166.846
20
-104.04
11
166.846
21
-104.04
0
LINE
8
BLACK
6
CONTINUOUS
10
166.846
20
-104.04
11
167.062
21
-104.209
0
LINE
8
BLACK
6
CONTINUOUS
10
167.062
20
-104.209
11
167.062
21
-104.209
0
LINE
8
BLACK
6
CONTINUOUS
10
167.062
20
-104.209
11
167.062
21
-104.209
0
LINE
8
BLACK
6
CONTINUOUS
10
167.062
20
-104.209
11
167.261
21
-104.395
0
LINE
8
BLACK
6
CONTINUOUS
10
167.261
20
-104.395
11
167.261
21
-104.396
0
LINE
8
BLACK
6
CONTINUOUS
10
167.261
20
-104.396
11
167.261
21
-104.396
0
LINE
8
BLACK
6
CONTINUOUS
10
167.261
20
-104.396
11
167.442
21
-104.599
0
LINE
8
BLACK
6
CONTINUOUS
10
167.442
20
-104.599
11
167.442
21
-104.599
0
LINE
8
BLACK
6
CONTINUOUS
10
167.442
20
-104.599
11
167.442
21
-104.599
0
LINE
8
BLACK
6
CONTINUOUS
10
167.442
20
-104.599
11
167.445
21
-104.603
0
LINE
8
BLACK
6
CONTINUOUS
10
167.445
20
-104.603
11
167.445
21
-104.603
0
LINE
8
BLACK
6
CONTINUOUS
10
167.445
20
-104.603
11
167.445
21
-104.603
0
LINE
8
BLACK
6
CONTINUOUS
10
167.445
20
-104.603
11
167.607
21
-104.825
0
LINE
8
BLACK
6
CONTINUOUS
10
167.607
20
-104.825
11
167.607
21
-104.825
0
LINE
8
BLACK
6
CONTINUOUS
10
167.607
20
-104.825
11
167.607
21
-104.826
0
LINE
8
BLACK
6
CONTINUOUS
10
167.607
20
-104.826
11
167.748
21
-105.063
0
LINE
8
BLACK
6
CONTINUOUS
10
167.748
20
-105.063
11
167.748
21
-105.064
0
LINE
8
BLACK
6
CONTINUOUS
10
167.748
20
-105.064
11
167.748
21
-105.064
0
LINE
8
BLACK
6
CONTINUOUS
10
167.748
20
-105.064
11
167.868
21
-105.316
0
LINE
8
BLACK
6
CONTINUOUS
10
167.868
20
-105.316
11
167.868
21
-105.316
0
LINE
8
BLACK
6
CONTINUOUS
10
167.868
20
-105.316
11
167.868
21
-105.316
0
LINE
8
BLACK
6
CONTINUOUS
10
167.868
20
-105.316
11
167.966
21
-105.581
0
LINE
8
BLACK
6
CONTINUOUS
10
167.966
20
-105.581
11
167.966
21
-105.581
0
LINE
8
BLACK
6
CONTINUOUS
10
167.966
20
-105.581
11
167.966
21
-105.581
0
LINE
8
BLACK
6
CONTINUOUS
10
167.966
20
-105.581
11
168.041
21
-105.857
0
LINE
8
BLACK
6
CONTINUOUS
10
168.041
20
-105.857
11
168.041
21
-105.857
0
LINE
8
BLACK
6
CONTINUOUS
10
168.041
20
-105.857
11
168.042
21
-105.857
0
LINE
8
BLACK
6
CONTINUOUS
10
168.042
20
-105.857
11
168.094
21
-106.142
0
LINE
8
BLACK
6
CONTINUOUS
10
168.094
20
-106.142
11
168.093
21
-106.142
0
LINE
8
BLACK
6
CONTINUOUS
10
168.093
20
-106.142
11
168.094
21
-106.142
0
LINE
8
BLACK
6
CONTINUOUS
10
168.094
20
-106.142
11
168.1
21
-106.2
0
LINE
8
BLACK
6
CONTINUOUS
10
168.1
20
-106.2
11
168.1
21
-106.2
0
LINE
8
BLACK
6
CONTINUOUS
10
168.1
20
-106.2
11
168.1
21
-106.2
0
LINE
8
BLACK
6
CONTINUOUS
10
168.1
20
-106.2
11
168.105
21
-106.287
0
LINE
8
BLACK
6
CONTINUOUS
10
168.105
20
-106.287
11
168.105
21
-106.287
0
LINE
8
BLACK
6
CONTINUOUS
10
168.105
20
-106.287
11
168.105
21
-106.287
0
LINE
8
BLACK
6
CONTINUOUS
10
168.105
20
-106.287
11
168.108
21
-106.388
0
LINE
8
BLACK
6
CONTINUOUS
10
168.108
20
-106.388
11
168.108
21
-106.388
0
LINE
8
BLACK
6
CONTINUOUS
10
168.108
20
-106.388
11
168.108
21
-106.388
0
LINE
8
BLACK
6
CONTINUOUS
10
168.108
20
-106.388
11
168.109
21
-106.496
0
LINE
8
BLACK
6
CONTINUOUS
10
168.109
20
-106.496
11
168.109
21
-106.496
0
LINE
8
BLACK
6
CONTINUOUS
10
168.109
20
-106.496
11
168.109
21
-106.496
0
LINE
8
BLACK
6
CONTINUOUS
10
168.109
20
-106.496
11
168.108
21
-106.605
0
LINE
8
BLACK
6
CONTINUOUS
10
168.108
20
-106.605
11
168.108
21
-106.605
0
LINE
8
BLACK
6
CONTINUOUS
10
168.108
20
-106.605
11
168.108
21
-106.605
0
LINE
8
BLACK
6
CONTINUOUS
10
168.108
20
-106.605
11
168.105
21
-106.708
0
LINE
8
BLACK
6
CONTINUOUS
10
168.105
20
-106.708
11
168.105
21
-106.708
0
LINE
8
BLACK
6
CONTINUOUS
10
168.105
20
-106.708
11
168.105
21
-106.708
0
LINE
8
BLACK
6
CONTINUOUS
10
168.105
20
-106.708
11
168.1
21
-106.799
0
LINE
8
BLACK
6
CONTINUOUS
10
168.1
20
-106.799
11
168.1
21
-106.799
0
LINE
8
BLACK
6
CONTINUOUS
10
168.1
20
-106.799
11
168.1
21
-106.799
0
LINE
8
BLACK
6
CONTINUOUS
10
168.1
20
-106.799
11
168.093
21
-106.871
0
LINE
8
BLACK
6
CONTINUOUS
10
168.093
20
-106.871
11
168.093
21
-106.871
0
LINE
8
BLACK
6
CONTINUOUS
10
168.093
20
-106.871
11
168.093
21
-106.871
0
LINE
8
BLACK
6
CONTINUOUS
10
168.093
20
-106.871
11
168.091
21
-106.89
0
LINE
8
BLACK
6
CONTINUOUS
10
168.091
20
-106.89
11
168.091
21
-106.89
0
LINE
8
BLACK
6
CONTINUOUS
10
168.091
20
-106.89
11
168.091
21
-106.89
0
LINE
8
BLACK
6
CONTINUOUS
10
168.091
20
-106.89
11
168.04
21
-107.168
0
LINE
8
BLACK
6
CONTINUOUS
10
168.04
20
-107.168
11
168.039
21
-107.168
0
LINE
8
BLACK
6
CONTINUOUS
10
168.039
20
-107.168
11
168.039
21
-107.168
0
LINE
8
BLACK
6
CONTINUOUS
10
168.039
20
-107.168
11
167.964
21
-107.44
0
LINE
8
BLACK
6
CONTINUOUS
10
167.964
20
-107.44
11
167.964
21
-107.44
0
LINE
8
BLACK
6
CONTINUOUS
10
167.964
20
-107.44
11
167.964
21
-107.44
0
LINE
8
BLACK
6
CONTINUOUS
10
167.964
20
-107.44
11
167.866
21
-107.703
0
LINE
8
BLACK
6
CONTINUOUS
10
167.866
20
-107.703
11
167.865
21
-107.703
0
LINE
8
BLACK
6
CONTINUOUS
10
167.865
20
-107.703
11
167.865
21
-107.703
0
LINE
8
BLACK
6
CONTINUOUS
10
167.865
20
-107.703
11
167.745
21
-107.955
0
LINE
8
BLACK
6
CONTINUOUS
10
167.745
20
-107.955
11
167.745
21
-107.955
0
LINE
8
BLACK
6
CONTINUOUS
10
167.745
20
-107.955
11
167.745
21
-107.955
0
LINE
8
BLACK
6
CONTINUOUS
10
167.745
20
-107.955
11
167.604
21
-108.193
0
LINE
8
BLACK
6
CONTINUOUS
10
167.604
20
-108.193
11
167.603
21
-108.193
0
LINE
8
BLACK
6
CONTINUOUS
10
167.603
20
-108.193
11
167.603
21
-108.193
0
LINE
8
BLACK
6
CONTINUOUS
10
167.603
20
-108.193
11
167.442
21
-108.415
0
LINE
8
BLACK
6
CONTINUOUS
10
167.442
20
-108.415
11
167.442
21
-108.415
0
LINE
8
BLACK
6
CONTINUOUS
10
167.442
20
-108.415
11
167.442
21
-108.415
0
LINE
8
BLACK
6
CONTINUOUS
10
167.442
20
-108.415
11
167.405
21
-108.459
0
LINE
8
BLACK
6
CONTINUOUS
10
167.405
20
-108.459
11
167.405
21
-108.459
0
LINE
8
BLACK
6
CONTINUOUS
10
167.405
20
-108.459
11
167.405
21
-108.459
0
LINE
8
BLACK
6
CONTINUOUS
10
167.405
20
-108.459
11
167.271
21
-108.605
0
LINE
8
BLACK
6
CONTINUOUS
10
167.271
20
-108.605
11
167.271
21
-108.605
0
LINE
8
BLACK
6
CONTINUOUS
10
167.271
20
-108.605
11
167.271
21
-108.606
0
LINE
8
BLACK
6
CONTINUOUS
10
167.271
20
-108.606
11
167.12
21
-108.75
0
LINE
8
BLACK
6
CONTINUOUS
10
167.12
20
-108.75
11
167.12
21
-108.75
0
LINE
8
BLACK
6
CONTINUOUS
10
167.12
20
-108.75
11
167.12
21
-108.75
0
LINE
8
BLACK
6
CONTINUOUS
10
167.12
20
-108.75
11
166.958
21
-108.887
0
LINE
8
BLACK
6
CONTINUOUS
10
166.958
20
-108.887
11
166.958
21
-108.887
0
LINE
8
BLACK
6
CONTINUOUS
10
166.958
20
-108.887
11
166.958
21
-108.888
0
LINE
8
BLACK
6
CONTINUOUS
10
166.958
20
-108.888
11
166.792
21
-109.012
0
LINE
8
BLACK
6
CONTINUOUS
10
166.792
20
-109.012
11
166.792
21
-109.012
0
LINE
8
BLACK
6
CONTINUOUS
10
166.792
20
-109.012
11
166.792
21
-109.012
0
LINE
8
BLACK
6
CONTINUOUS
10
166.792
20
-109.012
11
166.628
21
-109.117
0
LINE
8
BLACK
6
CONTINUOUS
10
166.628
20
-109.117
11
166.628
21
-109.117
0
LINE
8
BLACK
6
CONTINUOUS
10
166.628
20
-109.117
11
166.628
21
-109.117
0
LINE
8
BLACK
6
CONTINUOUS
10
166.628
20
-109.117
11
166.572
21
-109.149
0
LINE
8
BLACK
6
CONTINUOUS
10
166.572
20
-109.149
11
166.572
21
-109.149
0
LINE
8
BLACK
6
CONTINUOUS
10
166.572
20
-109.149
11
166.572
21
-109.15
0
LINE
8
BLACK
6
CONTINUOUS
10
166.572
20
-109.15
11
166.359
21
-109.257
0
LINE
8
BLACK
6
CONTINUOUS
10
166.359
20
-109.257
11
166.358
21
-109.257
0
LINE
8
BLACK
6
CONTINUOUS
10
166.358
20
-109.257
11
166.358
21
-109.257
0
LINE
8
BLACK
6
CONTINUOUS
10
166.358
20
-109.257
11
166.132
21
-109.35
0
LINE
8
BLACK
6
CONTINUOUS
10
166.132
20
-109.35
11
166.132
21
-109.35
0
LINE
8
BLACK
6
CONTINUOUS
10
166.132
20
-109.35
11
166.132
21
-109.35
0
LINE
8
BLACK
6
CONTINUOUS
10
166.132
20
-109.35
11
165.9
21
-109.426
0
LINE
8
BLACK
6
CONTINUOUS
10
165.9
20
-109.426
11
165.9
21
-109.426
0
LINE
8
BLACK
6
CONTINUOUS
10
165.9
20
-109.426
11
165.9
21
-109.426
0
LINE
8
BLACK
6
CONTINUOUS
10
165.9
20
-109.426
11
165.668
21
-109.483
0
LINE
8
BLACK
6
CONTINUOUS
10
165.668
20
-109.483
11
165.668
21
-109.483
0
LINE
8
BLACK
6
CONTINUOUS
10
165.668
20
-109.483
11
165.668
21
-109.484
0
LINE
8
BLACK
6
CONTINUOUS
10
165.668
20
-109.484
11
165.442
21
-109.52
0
LINE
8
BLACK
6
CONTINUOUS
10
165.442
20
-109.52
11
165.442
21
-109.52
0
LINE
8
BLACK
6
CONTINUOUS
10
165.442
20
-109.52
11
165.442
21
-109.52
0
LINE
8
BLACK
6
CONTINUOUS
10
165.442
20
-109.52
11
165.435
21
-109.52
0
LINE
8
BLACK
6
CONTINUOUS
10
165.435
20
-109.52
11
165.435
21
-109.52
0
LINE
8
BLACK
6
CONTINUOUS
10
165.435
20
-109.52
11
165.435
21
-109.521
0
LINE
8
BLACK
6
CONTINUOUS
10
165.435
20
-109.521
11
165.386
21
-109.524
0
LINE
8
BLACK
6
CONTINUOUS
10
165.386
20
-109.524
11
165.386
21
-109.524
0
LINE
8
BLACK
6
CONTINUOUS
10
165.386
20
-109.524
11
165.386
21
-109.524
0
LINE
8
BLACK
6
CONTINUOUS
10
165.386
20
-109.524
11
165.318
21
-109.527
0
LINE
8
BLACK
6
CONTINUOUS
10
165.318
20
-109.527
11
165.318
21
-109.527
0
LINE
8
BLACK
6
CONTINUOUS
10
165.318
20
-109.527
11
165.318
21
-109.527
0
LINE
8
BLACK
6
CONTINUOUS
10
165.318
20
-109.527
11
165.236
21
-109.53
0
LINE
8
BLACK
6
CONTINUOUS
10
165.236
20
-109.53
11
165.236
21
-109.53
0
LINE
8
BLACK
6
CONTINUOUS
10
165.236
20
-109.53
11
165.236
21
-109.53
0
LINE
8
BLACK
6
CONTINUOUS
10
165.236
20
-109.53
11
165.146
21
-109.532
0
LINE
8
BLACK
6
CONTINUOUS
10
165.146
20
-109.532
11
165.146
21
-109.532
0
LINE
8
BLACK
6
CONTINUOUS
10
165.146
20
-109.532
11
165.146
21
-109.532
0
LINE
8
BLACK
6
CONTINUOUS
10
165.146
20
-109.532
11
165.054
21
-109.533
0
LINE
8
BLACK
6
CONTINUOUS
10
165.054
20
-109.533
11
165.054
21
-109.533
0
LINE
8
BLACK
6
CONTINUOUS
10
165.054
20
-109.533
11
165.054
21
-109.533
0
LINE
8
BLACK
6
CONTINUOUS
10
165.054
20
-109.533
11
164.767
21
-109.534
0
LINE
8
BLACK
6
CONTINUOUS
10
164.767
20
-109.534
11
164.767
21
-109.534
0
LINE
8
BLACK
6
CONTINUOUS
10
164.767
20
-109.534
11
164.767
21
-109.534
0
LINE
8
BLACK
6
CONTINUOUS
10
164.767
20
-109.534
11
164.765
21
-109.534
0
LINE
8
BLACK
6
CONTINUOUS
10
164.765
20
-109.534
11
164.763
21
-109.533
0
LINE
8
BLACK
6
CONTINUOUS
10
164.763
20
-109.533
11
164.763
21
-109.533
0
LINE
8
BLACK
6
CONTINUOUS
10
164.763
20
-109.533
11
164.763
21
-109.533
0
LINE
8
BLACK
6
CONTINUOUS
10
164.763
20
-109.533
11
164.762
21
-109.531
0
LINE
8
BLACK
6
CONTINUOUS
10
164.762
20
-109.531
11
164.762
21
-109.53
0
LINE
8
BLACK
6
CONTINUOUS
10
164.762
20
-109.53
11
164.762
21
-109.529
0
LINE
8
BLACK
6
CONTINUOUS
10
164.762
20
-109.529
11
164.762
21
-109.529
0
LINE
8
BLACK
6
CONTINUOUS
10
164.762
20
-109.529
11
164.762
21
-108.597
0
LINE
8
BLACK
6
CONTINUOUS
10
164.762
20
-108.597
11
164.763
21
-108.593
0
LINE
8
BLACK
6
CONTINUOUS
10
164.763
20
-108.593
11
164.767
21
-108.592
0
LINE
8
BLACK
6
CONTINUOUS
10
164.767
20
-108.592
11
165.054
21
-108.592
0
LINE
8
BLACK
6
CONTINUOUS
10
165.054
20
-108.592
11
165.125
21
-108.592
0
LINE
8
BLACK
6
CONTINUOUS
10
165.125
20
-108.592
11
165.125
21
-108.592
0
LINE
8
BLACK
6
CONTINUOUS
10
165.125
20
-108.592
11
165.211
21
-108.591
0
LINE
8
BLACK
6
CONTINUOUS
10
165.211
20
-108.591
11
165.279
21
-108.589
0
LINE
8
BLACK
6
CONTINUOUS
10
165.279
20
-108.589
11
165.335
21
-108.585
0
LINE
8
BLACK
6
CONTINUOUS
10
165.335
20
-108.585
11
165.384
21
-108.58
0
LINE
8
BLACK
6
CONTINUOUS
10
165.384
20
-108.58
11
165.433
21
-108.572
0
LINE
8
BLACK
6
CONTINUOUS
10
165.433
20
-108.572
11
165.485
21
-108.561
0
LINE
8
BLACK
6
CONTINUOUS
10
165.485
20
-108.561
11
165.491
21
-108.56
0
LINE
8
BLACK
6
CONTINUOUS
10
165.491
20
-108.56
11
165.724
21
-108.496
0
LINE
8
BLACK
6
CONTINUOUS
10
165.724
20
-108.496
11
165.944
21
-108.41
0
LINE
8
BLACK
6
CONTINUOUS
10
165.944
20
-108.41
11
166.151
21
-108.301
0
LINE
8
BLACK
6
CONTINUOUS
10
166.151
20
-108.301
11
166.344
21
-108.171
0
LINE
8
BLACK
6
CONTINUOUS
10
166.344
20
-108.171
11
166.521
21
-108.02
0
LINE
8
BLACK
6
CONTINUOUS
10
166.521
20
-108.02
11
166.682
21
-107.849
0
LINE
8
BLACK
6
CONTINUOUS
10
166.682
20
-107.849
11
166.826
21
-107.657
0
LINE
8
BLACK
6
CONTINUOUS
10
166.826
20
-107.657
11
166.835
21
-107.643
0
LINE
8
BLACK
6
CONTINUOUS
10
166.835
20
-107.643
11
166.891
21
-107.549
0
LINE
8
BLACK
6
CONTINUOUS
10
166.891
20
-107.549
11
166.947
21
-107.442
0
LINE
8
BLACK
6
CONTINUOUS
10
166.947
20
-107.442
11
167
21
-107.328
0
LINE
8
BLACK
6
CONTINUOUS
10
167
20
-107.328
11
167.047
21
-107.215
0
LINE
8
BLACK
6
CONTINUOUS
10
167.047
20
-107.215
11
167.084
21
-107.109
0
LINE
8
BLACK
6
CONTINUOUS
10
167.084
20
-107.109
11
167.109
21
-107.018
0
LINE
8
BLACK
6
CONTINUOUS
10
167.109
20
-107.018
11
167.117
21
-106.981
0
LINE
8
BLACK
6
CONTINUOUS
10
167.117
20
-106.981
11
165.362
21
-106.981
0
LINE
8
BLACK
6
CONTINUOUS
10
165.362
20
-106.981
11
165.358
21
-106.98
0
LINE
8
BLACK
6
CONTINUOUS
10
165.358
20
-106.98
11
165.357
21
-106.976
0
LINE
8
BLACK
6
CONTINUOUS
10
165.357
20
-106.976
11
165.357
21
-106.037
0
LINE
8
BLACK
6
CONTINUOUS
10
165.357
20
-106.037
11
165.358
21
-106.033
0
LINE
8
BLACK
6
CONTINUOUS
10
165.358
20
-106.033
11
165.362
21
-106.032
0
LINE
8
BLACK
6
CONTINUOUS
10
165.362
20
-106.032
11
167.117
21
-106.032
0
LINE
8
BLACK
6
CONTINUOUS
10
167.117
20
-106.032
11
167.109
21
-105.995
0
LINE
8
BLACK
6
CONTINUOUS
10
167.109
20
-105.995
11
167.103
21
-105.97
0
LINE
8
BLACK
6
CONTINUOUS
10
167.103
20
-105.97
11
167.076
21
-105.879
0
LINE
8
BLACK
6
CONTINUOUS
10
167.076
20
-105.879
11
167.038
21
-105.776
0
LINE
8
BLACK
6
CONTINUOUS
10
167.038
20
-105.776
11
166.992
21
-105.666
0
LINE
8
BLACK
6
CONTINUOUS
10
166.992
20
-105.666
11
166.941
21
-105.557
0
LINE
8
BLACK
6
CONTINUOUS
10
166.941
20
-105.557
11
166.888
21
-105.456
0
LINE
8
BLACK
6
CONTINUOUS
10
166.888
20
-105.456
11
166.836
21
-105.369
0
LINE
8
BLACK
6
CONTINUOUS
10
166.836
20
-105.369
11
166.812
21
-105.332
0
LINE
8
BLACK
6
CONTINUOUS
10
166.812
20
-105.332
11
166.672
21
-105.15
0
LINE
8
BLACK
6
CONTINUOUS
10
166.672
20
-105.15
11
166.513
21
-104.984
0
LINE
8
BLACK
6
CONTINUOUS
10
166.513
20
-104.984
11
166.336
21
-104.837
0
LINE
8
BLACK
6
CONTINUOUS
10
166.336
20
-104.837
11
166.143
21
-104.708
0
LINE
8
BLACK
6
CONTINUOUS
10
166.143
20
-104.708
11
165.937
21
-104.601
0
LINE
8
BLACK
6
CONTINUOUS
10
165.937
20
-104.601
11
165.718
21
-104.515
0
LINE
8
BLACK
6
CONTINUOUS
10
165.718
20
-104.515
11
165.488
21
-104.451
0
LINE
8
BLACK
6
CONTINUOUS
10
165.488
20
-104.451
11
165.455
21
-104.444
0
LINE
8
BLACK
6
CONTINUOUS
10
165.455
20
-104.444
11
165.408
21
-104.436
0
LINE
8
BLACK
6
CONTINUOUS
10
165.408
20
-104.436
11
165.361
21
-104.43
0
LINE
8
BLACK
6
CONTINUOUS
10
165.361
20
-104.43
11
165.308
21
-104.426
0
LINE
8
BLACK
6
CONTINUOUS
10
165.308
20
-104.426
11
165.244
21
-104.423
0
LINE
8
BLACK
6
CONTINUOUS
10
165.244
20
-104.423
11
165.163
21
-104.422
0
LINE
8
BLACK
6
CONTINUOUS
10
165.163
20
-104.422
11
165.163
21
-104.422
0
LINE
8
BLACK
6
CONTINUOUS
10
165.163
20
-104.422
11
165.061
21
-104.422
0
LINE
8
BLACK
6
CONTINUOUS
10
165.061
20
-104.422
11
165.061
21
-104.422
0
LINE
8
BLACK
6
CONTINUOUS
10
165.061
20
-104.422
11
164.767
21
-104.421
0
LINE
8
BLACK
6
CONTINUOUS
10
164.767
20
-104.421
11
164.765
21
-104.421
0
LINE
8
BLACK
6
CONTINUOUS
10
164.765
20
-104.421
11
164.763
21
-104.42
0
LINE
8
BLACK
6
CONTINUOUS
10
164.763
20
-104.42
11
164.763
21
-104.42
0
LINE
8
BLACK
6
CONTINUOUS
10
164.763
20
-104.42
11
164.763
21
-104.42
0
LINE
8
BLACK
6
CONTINUOUS
10
164.763
20
-104.42
11
164.762
21
-104.418
0
LINE
8
BLACK
6
CONTINUOUS
10
164.762
20
-104.418
11
164.762
21
-104.416
0
LINE
8
BLACK
6
CONTINUOUS
10
164.762
20
-104.416
11
164.762
21
-103.484
0
LINE
8
BLACK
6
CONTINUOUS
10
164.762
20
-103.484
11
164.762
21
-103.484
0
LINE
8
BLACK
6
CONTINUOUS
10
164.762
20
-103.484
11
164.762
21
-103.484
0
LINE
8
BLACK
6
CONTINUOUS
10
164.762
20
-103.484
11
164.763
21
-103.481
0
LINE
8
BLACK
6
CONTINUOUS
10
164.763
20
-103.481
11
164.763
21
-103.48
0
LINE
8
BLACK
6
CONTINUOUS
10
164.763
20
-103.48
11
164.763
21
-103.48
0
LINE
8
BLACK
6
CONTINUOUS
10
164.763
20
-103.48
11
164.763
21
-103.48
0
LINE
8
BLACK
6
CONTINUOUS
10
164.763
20
-103.48
11
164.765
21
-103.48
0
LINE
8
BLACK
6
CONTINUOUS
10
164.765
20
-103.48
11
164.767
21
-103.479
0
LINE
8
BLACK
6
CONTINUOUS
10
164.767
20
-103.479
11
164.767
21
-103.479
0
LINE
8
BLACK
6
CONTINUOUS
10
164.767
20
-103.479
11
164.767
21
-103.479
0
LINE
8
BLACK
6
CONTINUOUS
10
164.767
20
-103.479
11
165.048
21
-103.479
0
LINE
8
BLACK
6
CONTINUOUS
10
170.224
20
-103.48
11
170.224
21
-103.48
0
LINE
8
BLACK
6
CONTINUOUS
10
170.224
20
-103.48
11
170.224
21
-103.48
0
LINE
8
BLACK
6
CONTINUOUS
10
170.224
20
-103.48
11
170.313
21
-103.481
0
LINE
8
BLACK
6
CONTINUOUS
10
170.313
20
-103.481
11
170.313
21
-103.481
0
LINE
8
BLACK
6
CONTINUOUS
10
170.313
20
-103.481
11
170.313
21
-103.481
0
LINE
8
BLACK
6
CONTINUOUS
10
170.313
20
-103.481
11
170.4
21
-103.484
0
LINE
8
BLACK
6
CONTINUOUS
10
170.4
20
-103.484
11
170.4
21
-103.484
0
LINE
8
BLACK
6
CONTINUOUS
10
170.4
20
-103.484
11
170.4
21
-103.484
0
LINE
8
BLACK
6
CONTINUOUS
10
170.4
20
-103.484
11
170.48
21
-103.488
0
LINE
8
BLACK
6
CONTINUOUS
10
170.48
20
-103.488
11
170.48
21
-103.488
0
LINE
8
BLACK
6
CONTINUOUS
10
170.48
20
-103.488
11
170.48
21
-103.488
0
LINE
8
BLACK
6
CONTINUOUS
10
170.48
20
-103.488
11
170.549
21
-103.493
0
LINE
8
BLACK
6
CONTINUOUS
10
170.549
20
-103.493
11
170.549
21
-103.493
0
LINE
8
BLACK
6
CONTINUOUS
10
170.549
20
-103.493
11
170.549
21
-103.493
0
LINE
8
BLACK
6
CONTINUOUS
10
170.549
20
-103.493
11
170.602
21
-103.498
0
LINE
8
BLACK
6
CONTINUOUS
10
170.602
20
-103.498
11
170.602
21
-103.498
0
LINE
8
BLACK
6
CONTINUOUS
10
170.602
20
-103.498
11
170.602
21
-103.498
0
LINE
8
BLACK
6
CONTINUOUS
10
170.602
20
-103.498
11
170.793
21
-103.529
0
LINE
8
BLACK
6
CONTINUOUS
10
170.793
20
-103.529
11
170.793
21
-103.529
0
LINE
8
BLACK
6
CONTINUOUS
10
170.793
20
-103.529
11
170.793
21
-103.529
0
LINE
8
BLACK
6
CONTINUOUS
10
170.793
20
-103.529
11
171.067
21
-103.596
0
LINE
8
BLACK
6
CONTINUOUS
10
171.067
20
-103.596
11
171.067
21
-103.596
0
LINE
8
BLACK
6
CONTINUOUS
10
171.067
20
-103.596
11
171.067
21
-103.596
0
LINE
8
BLACK
6
CONTINUOUS
10
171.067
20
-103.596
11
171.331
21
-103.687
0
LINE
8
BLACK
6
CONTINUOUS
10
171.331
20
-103.687
11
171.332
21
-103.687
0
LINE
8
BLACK
6
CONTINUOUS
10
171.332
20
-103.687
11
171.332
21
-103.687
0
LINE
8
BLACK
6
CONTINUOUS
10
171.332
20
-103.687
11
171.585
21
-103.801
0
LINE
8
BLACK
6
CONTINUOUS
10
171.585
20
-103.801
11
171.585
21
-103.802
0
LINE
8
BLACK
6
CONTINUOUS
10
171.585
20
-103.802
11
171.586
21
-103.802
0
LINE
8
BLACK
6
CONTINUOUS
10
171.586
20
-103.802
11
171.827
21
-103.938
0
LINE
8
BLACK
6
CONTINUOUS
10
171.827
20
-103.938
11
171.827
21
-103.938
0
LINE
8
BLACK
6
CONTINUOUS
10
171.827
20
-103.938
11
171.827
21
-103.938
0
LINE
8
BLACK
6
CONTINUOUS
10
171.827
20
-103.938
11
172.054
21
-104.096
0
LINE
8
BLACK
6
CONTINUOUS
10
172.054
20
-104.096
11
172.054
21
-104.096
0
LINE
8
BLACK
6
CONTINUOUS
10
172.054
20
-104.096
11
172.055
21
-104.096
0
LINE
8
BLACK
6
CONTINUOUS
10
172.055
20
-104.096
11
172.267
21
-104.275
0
LINE
8
BLACK
6
CONTINUOUS
10
172.267
20
-104.275
11
172.267
21
-104.275
0
LINE
8
BLACK
6
CONTINUOUS
10
172.267
20
-104.275
11
172.267
21
-104.275
0
LINE
8
BLACK
6
CONTINUOUS
10
172.267
20
-104.275
11
172.463
21
-104.473
0
LINE
8
BLACK
6
CONTINUOUS
10
172.463
20
-104.473
11
172.463
21
-104.473
0
LINE
8
BLACK
6
CONTINUOUS
10
172.463
20
-104.473
11
172.464
21
-104.474
0
LINE
8
BLACK
6
CONTINUOUS
10
172.464
20
-104.474
11
172.642
21
-104.691
0
LINE
8
BLACK
6
CONTINUOUS
10
172.642
20
-104.691
11
172.642
21
-104.691
0
LINE
8
BLACK
6
CONTINUOUS
10
172.642
20
-104.691
11
172.642
21
-104.691
0
LINE
8
BLACK
6
CONTINUOUS
10
172.642
20
-104.691
11
172.721
21
-104.802
0
LINE
8
BLACK
6
CONTINUOUS
10
172.721
20
-104.802
11
172.721
21
-104.802
0
LINE
8
BLACK
6
CONTINUOUS
10
172.721
20
-104.802
11
172.721
21
-104.802
0
LINE
8
BLACK
6
CONTINUOUS
10
172.721
20
-104.802
11
172.869
21
-105.043
0
LINE
8
BLACK
6
CONTINUOUS
10
172.869
20
-105.043
11
172.869
21
-105.043
0
LINE
8
BLACK
6
CONTINUOUS
10
172.869
20
-105.043
11
172.869
21
-105.043
0
LINE
8
BLACK
6
CONTINUOUS
10
172.869
20
-105.043
11
172.993
21
-105.296
0
LINE
8
BLACK
6
CONTINUOUS
10
172.993
20
-105.296
11
172.993
21
-105.296
0
LINE
8
BLACK
6
CONTINUOUS
10
172.993
20
-105.296
11
172.993
21
-105.296
0
LINE
8
BLACK
6
CONTINUOUS
10
172.993
20
-105.296
11
173.092
21
-105.559
0
LINE
8
BLACK
6
CONTINUOUS
10
173.092
20
-105.559
11
173.092
21
-105.559
0
LINE
8
BLACK
6
CONTINUOUS
10
173.092
20
-105.559
11
173.093
21
-105.559
0
LINE
8
BLACK
6
CONTINUOUS
10
173.093
20
-105.559
11
173.168
21
-105.832
0
LINE
8
BLACK
6
CONTINUOUS
10
173.168
20
-105.832
11
173.168
21
-105.833
0
LINE
8
BLACK
6
CONTINUOUS
10
173.168
20
-105.833
11
173.168
21
-105.833
0
LINE
8
BLACK
6
CONTINUOUS
10
173.168
20
-105.833
11
173.219
21
-106.115
0
LINE
8
BLACK
6
CONTINUOUS
10
173.219
20
-106.115
11
173.219
21
-106.116
0
LINE
8
BLACK
6
CONTINUOUS
10
173.219
20
-106.116
11
173.219
21
-106.116
0
LINE
8
BLACK
6
CONTINUOUS
10
173.219
20
-106.116
11
173.223
21
-106.148
0
LINE
8
BLACK
6
CONTINUOUS
10
173.223
20
-106.148
11
173.223
21
-106.148
0
LINE
8
BLACK
6
CONTINUOUS
10
173.223
20
-106.148
11
173.223
21
-106.148
0
LINE
8
BLACK
6
CONTINUOUS
10
173.223
20
-106.148
11
173.23
21
-106.242
0
LINE
8
BLACK
6
CONTINUOUS
10
173.23
20
-106.242
11
173.23
21
-106.242
0
LINE
8
BLACK
6
CONTINUOUS
10
173.23
20
-106.242
11
173.23
21
-106.242
0
LINE
8
BLACK
6
CONTINUOUS
10
173.23
20
-106.242
11
173.235
21
-106.352
0
LINE
8
BLACK
6
CONTINUOUS
10
173.235
20
-106.352
11
173.235
21
-106.352
0
LINE
8
BLACK
6
CONTINUOUS
10
173.235
20
-106.352
11
173.235
21
-106.352
0
LINE
8
BLACK
6
CONTINUOUS
10
173.235
20
-106.352
11
173.237
21
-106.471
0
LINE
8
BLACK
6
CONTINUOUS
10
173.237
20
-106.471
11
173.237
21
-106.471
0
LINE
8
BLACK
6
CONTINUOUS
10
173.237
20
-106.471
11
173.237
21
-106.471
0
LINE
8
BLACK
6
CONTINUOUS
10
173.237
20
-106.471
11
173.237
21
-106.592
0
LINE
8
BLACK
6
CONTINUOUS
10
173.237
20
-106.592
11
173.237
21
-106.592
0
LINE
8
BLACK
6
CONTINUOUS
10
173.237
20
-106.592
11
173.237
21
-106.592
0
LINE
8
BLACK
6
CONTINUOUS
10
173.237
20
-106.592
11
173.233
21
-106.708
0
LINE
8
BLACK
6
CONTINUOUS
10
173.233
20
-106.708
11
173.233
21
-106.708
0
LINE
8
BLACK
6
CONTINUOUS
10
173.233
20
-106.708
11
173.233
21
-106.708
0
LINE
8
BLACK
6
CONTINUOUS
10
173.233
20
-106.708
11
173.228
21
-106.812
0
LINE
8
BLACK
6
CONTINUOUS
10
173.228
20
-106.812
11
173.228
21
-106.812
0
LINE
8
BLACK
6
CONTINUOUS
10
173.228
20
-106.812
11
173.228
21
-106.813
0
LINE
8
BLACK
6
CONTINUOUS
10
173.228
20
-106.813
11
173.219
21
-106.897
0
LINE
8
BLACK
6
CONTINUOUS
10
173.219
20
-106.897
11
173.219
21
-106.897
0
LINE
8
BLACK
6
CONTINUOUS
10
173.219
20
-106.897
11
173.219
21
-106.898
0
LINE
8
BLACK
6
CONTINUOUS
10
173.219
20
-106.898
11
173.206
21
-106.986
0
LINE
8
BLACK
6
CONTINUOUS
10
173.206
20
-106.986
11
173.206
21
-106.987
0
LINE
8
BLACK
6
CONTINUOUS
10
173.206
20
-106.987
11
173.206
21
-106.987
0
LINE
8
BLACK
6
CONTINUOUS
10
173.206
20
-106.987
11
173.148
21
-107.263
0
LINE
8
BLACK
6
CONTINUOUS
10
173.148
20
-107.263
11
173.148
21
-107.264
0
LINE
8
BLACK
6
CONTINUOUS
10
173.148
20
-107.264
11
173.148
21
-107.264
0
LINE
8
BLACK
6
CONTINUOUS
10
173.148
20
-107.264
11
173.066
21
-107.531
0
LINE
8
BLACK
6
CONTINUOUS
10
173.066
20
-107.531
11
173.066
21
-107.531
0
LINE
8
BLACK
6
CONTINUOUS
10
173.066
20
-107.531
11
173.066
21
-107.531
0
LINE
8
BLACK
6
CONTINUOUS
10
173.066
20
-107.531
11
172.961
21
-107.786
0
LINE
8
BLACK
6
CONTINUOUS
10
172.961
20
-107.786
11
172.961
21
-107.787
0
LINE
8
BLACK
6
CONTINUOUS
10
172.961
20
-107.787
11
172.961
21
-107.787
0
LINE
8
BLACK
6
CONTINUOUS
10
172.961
20
-107.787
11
172.835
21
-108.03
0
LINE
8
BLACK
6
CONTINUOUS
10
172.835
20
-108.03
11
172.834
21
-108.03
0
LINE
8
BLACK
6
CONTINUOUS
10
172.834
20
-108.03
11
172.834
21
-108.03
0
LINE
8
BLACK
6
CONTINUOUS
10
172.834
20
-108.03
11
172.687
21
-108.26
0
LINE
8
BLACK
6
CONTINUOUS
10
172.687
20
-108.26
11
172.687
21
-108.26
0
LINE
8
BLACK
6
CONTINUOUS
10
172.687
20
-108.26
11
172.687
21
-108.26
0
LINE
8
BLACK
6
CONTINUOUS
10
172.687
20
-108.26
11
172.52
21
-108.475
0
LINE
8
BLACK
6
CONTINUOUS
10
172.52
20
-108.475
11
172.52
21
-108.475
0
LINE
8
BLACK
6
CONTINUOUS
10
172.52
20
-108.475
11
172.52
21
-108.475
0
LINE
8
BLACK
6
CONTINUOUS
10
172.52
20
-108.475
11
172.334
21
-108.674
0
LINE
8
BLACK
6
CONTINUOUS
10
172.334
20
-108.674
11
172.334
21
-108.674
0
LINE
8
BLACK
6
CONTINUOUS
10
172.334
20
-108.674
11
172.334
21
-108.675
0
LINE
8
BLACK
6
CONTINUOUS
10
172.334
20
-108.675
11
172.131
21
-108.856
0
LINE
8
BLACK
6
CONTINUOUS
10
172.131
20
-108.856
11
172.13
21
-108.856
0
LINE
8
BLACK
6
CONTINUOUS
10
172.13
20
-108.856
11
172.13
21
-108.857
0
LINE
8
BLACK
6
CONTINUOUS
10
172.13
20
-108.857
11
171.91
21
-109.02
0
LINE
8
BLACK
6
CONTINUOUS
10
171.91
20
-109.02
11
171.91
21
-109.02
0
LINE
8
BLACK
6
CONTINUOUS
10
171.91
20
-109.02
11
171.91
21
-109.02
0
LINE
8
BLACK
6
CONTINUOUS
10
171.91
20
-109.02
11
171.674
21
-109.164
0
LINE
8
BLACK
6
CONTINUOUS
10
171.674
20
-109.164
11
171.674
21
-109.164
0
LINE
8
BLACK
6
CONTINUOUS
10
171.674
20
-109.164
11
171.673
21
-109.164
0
LINE
8
BLACK
6
CONTINUOUS
10
171.673
20
-109.164
11
171.423
21
-109.287
0
LINE
8
BLACK
6
CONTINUOUS
10
171.423
20
-109.287
11
171.423
21
-109.287
0
LINE
8
BLACK
6
CONTINUOUS
10
171.423
20
-109.287
11
171.422
21
-109.287
0
LINE
8
BLACK
6
CONTINUOUS
10
171.422
20
-109.287
11
171.158
21
-109.388
0
LINE
8
BLACK
6
CONTINUOUS
10
171.158
20
-109.388
11
171.158
21
-109.388
0
LINE
8
BLACK
6
CONTINUOUS
10
171.158
20
-109.388
11
171.157
21
-109.388
0
LINE
8
BLACK
6
CONTINUOUS
10
171.157
20
-109.388
11
171.076
21
-109.413
0
LINE
8
BLACK
6
CONTINUOUS
10
171.076
20
-109.413
11
171.076
21
-109.413
0
LINE
8
BLACK
6
CONTINUOUS
10
171.076
20
-109.413
11
171.076
21
-109.413
0
LINE
8
BLACK
6
CONTINUOUS
10
171.076
20
-109.413
11
170.949
21
-109.448
0
LINE
8
BLACK
6
CONTINUOUS
10
170.949
20
-109.448
11
170.949
21
-109.448
0
LINE
8
BLACK
6
CONTINUOUS
10
170.949
20
-109.448
11
170.948
21
-109.448
0
LINE
8
BLACK
6
CONTINUOUS
10
170.948
20
-109.448
11
170.816
21
-109.479
0
LINE
8
BLACK
6
CONTINUOUS
10
170.816
20
-109.479
11
170.816
21
-109.479
0
LINE
8
BLACK
6
CONTINUOUS
10
170.816
20
-109.479
11
170.816
21
-109.479
0
LINE
8
BLACK
6
CONTINUOUS
10
170.816
20
-109.479
11
170.688
21
-109.503
0
LINE
8
BLACK
6
CONTINUOUS
10
170.688
20
-109.503
11
170.688
21
-109.503
0
LINE
8
BLACK
6
CONTINUOUS
10
170.688
20
-109.503
11
170.688
21
-109.503
0
LINE
8
BLACK
6
CONTINUOUS
10
170.688
20
-109.503
11
170.575
21
-109.52
0
LINE
8
BLACK
6
CONTINUOUS
10
170.575
20
-109.52
11
170.575
21
-109.52
0
LINE
8
BLACK
6
CONTINUOUS
10
170.575
20
-109.52
11
170.575
21
-109.52
0
LINE
8
BLACK
6
CONTINUOUS
10
170.575
20
-109.52
11
170.574
21
-109.52
0
LINE
8
BLACK
6
CONTINUOUS
10
170.574
20
-109.52
11
170.574
21
-109.52
0
LINE
8
BLACK
6
CONTINUOUS
10
170.574
20
-109.52
11
170.574
21
-109.52
0
LINE
8
BLACK
6
CONTINUOUS
10
170.574
20
-109.52
11
170.529
21
-109.524
0
LINE
8
BLACK
6
CONTINUOUS
10
170.529
20
-109.524
11
170.529
21
-109.523
0
LINE
8
BLACK
6
CONTINUOUS
10
170.529
20
-109.523
11
170.529
21
-109.524
0
LINE
8
BLACK
6
CONTINUOUS
10
170.529
20
-109.524
11
170.466
21
-109.527
0
LINE
8
BLACK
6
CONTINUOUS
10
170.466
20
-109.527
11
170.466
21
-109.527
0
LINE
8
BLACK
6
CONTINUOUS
10
170.466
20
-109.527
11
170.466
21
-109.527
0
LINE
8
BLACK
6
CONTINUOUS
10
170.466
20
-109.527
11
170.391
21
-109.529
0
LINE
8
BLACK
6
CONTINUOUS
10
170.391
20
-109.529
11
170.391
21
-109.529
0
LINE
8
BLACK
6
CONTINUOUS
10
170.391
20
-109.529
11
170.391
21
-109.529
0
LINE
8
BLACK
6
CONTINUOUS
10
170.391
20
-109.529
11
170.309
21
-109.531
0
LINE
8
BLACK
6
CONTINUOUS
10
170.309
20
-109.531
11
170.309
21
-109.531
0
LINE
8
BLACK
6
CONTINUOUS
10
170.309
20
-109.531
11
170.309
21
-109.531
0
LINE
8
BLACK
6
CONTINUOUS
10
170.309
20
-109.531
11
170.224
21
-109.532
0
LINE
8
BLACK
6
CONTINUOUS
10
170.224
20
-109.532
11
170.224
21
-109.532
0
LINE
8
BLACK
6
CONTINUOUS
10
170.224
20
-109.532
11
170.224
21
-109.532
0
LINE
8
BLACK
6
CONTINUOUS
10
170.224
20
-109.532
11
170.141
21
-109.533
0
LINE
8
BLACK
6
CONTINUOUS
10
170.141
20
-109.533
11
170.141
21
-109.533
0
LINE
8
BLACK
6
CONTINUOUS
10
170.141
20
-109.533
11
170.141
21
-109.533
0
LINE
8
BLACK
6
CONTINUOUS
10
170.141
20
-109.533
11
170.065
21
-109.532
0
LINE
8
BLACK
6
CONTINUOUS
10
170.065
20
-109.532
11
170.065
21
-109.532
0
LINE
8
BLACK
6
CONTINUOUS
10
170.065
20
-109.532
11
170.065
21
-109.532
0
LINE
8
BLACK
6
CONTINUOUS
10
170.065
20
-109.532
11
170.002
21
-109.531
0
LINE
8
BLACK
6
CONTINUOUS
10
170.002
20
-109.531
11
170.002
21
-109.531
0
LINE
8
BLACK
6
CONTINUOUS
10
170.002
20
-109.531
11
170.002
21
-109.531
0
LINE
8
BLACK
6
CONTINUOUS
10
170.002
20
-109.531
11
169.955
21
-109.529
0
LINE
8
BLACK
6
CONTINUOUS
10
169.955
20
-109.529
11
169.954
21
-109.529
0
LINE
8
BLACK
6
CONTINUOUS
10
169.954
20
-109.529
11
169.954
21
-109.529
0
LINE
8
BLACK
6
CONTINUOUS
10
169.954
20
-109.529
11
169.929
21
-109.526
0
LINE
8
BLACK
6
CONTINUOUS
10
169.929
20
-109.526
11
169.928
21
-109.526
0
LINE
8
BLACK
6
CONTINUOUS
10
169.928
20
-109.526
11
169.928
21
-109.526
0
LINE
8
BLACK
6
CONTINUOUS
10
169.928
20
-109.526
11
169.898
21
-109.518
0
LINE
8
BLACK
6
CONTINUOUS
10
169.898
20
-109.518
11
169.897
21
-109.517
0
LINE
8
BLACK
6
CONTINUOUS
10
169.897
20
-109.517
11
169.896
21
-109.517
0
LINE
8
BLACK
6
CONTINUOUS
10
169.896
20
-109.517
11
169.896
21
-109.516
0
LINE
8
BLACK
6
CONTINUOUS
10
169.896
20
-109.516
11
169.895
21
-109.516
0
LINE
8
BLACK
6
CONTINUOUS
10
169.895
20
-109.516
11
169.895
21
-109.514
0
LINE
8
BLACK
6
CONTINUOUS
10
169.895
20
-109.514
11
169.895
21
-109.513
0
LINE
8
BLACK
6
CONTINUOUS
10
169.895
20
-109.513
11
169.895
21
-108.596
0
LINE
8
BLACK
6
CONTINUOUS
10
169.895
20
-108.596
11
169.895
21
-108.596
0
LINE
8
BLACK
6
CONTINUOUS
10
169.895
20
-108.596
11
169.895
21
-108.596
0
LINE
8
BLACK
6
CONTINUOUS
10
169.895
20
-108.596
11
169.895
21
-108.594
0
LINE
8
BLACK
6
CONTINUOUS
10
169.895
20
-108.594
11
169.896
21
-108.593
0
LINE
8
BLACK
6
CONTINUOUS
10
169.896
20
-108.593
11
169.896
21
-108.593
0
LINE
8
BLACK
6
CONTINUOUS
10
169.896
20
-108.593
11
169.896
21
-108.593
0
LINE
8
BLACK
6
CONTINUOUS
10
169.896
20
-108.593
11
169.898
21
-108.592
0
LINE
8
BLACK
6
CONTINUOUS
10
169.898
20
-108.592
11
169.9
21
-108.591
0
LINE
8
BLACK
6
CONTINUOUS
10
169.9
20
-108.591
11
169.9
21
-108.591
0
LINE
8
BLACK
6
CONTINUOUS
10
169.9
20
-108.591
11
169.9
21
-108.591
0
LINE
8
BLACK
6
CONTINUOUS
10
169.9
20
-108.591
11
170.174
21
-108.592
0
LINE
8
BLACK
6
CONTINUOUS
10
170.174
20
-108.592
11
170.229
21
-108.591
0
LINE
8
BLACK
6
CONTINUOUS
10
170.229
20
-108.591
11
170.355
21
-108.589
0
LINE
8
BLACK
6
CONTINUOUS
10
170.355
20
-108.589
11
170.462
21
-108.582
0
LINE
8
BLACK
6
CONTINUOUS
10
170.462
20
-108.582
11
170.559
21
-108.571
0
LINE
8
BLACK
6
CONTINUOUS
10
170.559
20
-108.571
11
170.652
21
-108.553
0
LINE
8
BLACK
6
CONTINUOUS
10
170.652
20
-108.553
11
170.746
21
-108.529
0
LINE
8
BLACK
6
CONTINUOUS
10
170.746
20
-108.529
11
170.849
21
-108.498
0
LINE
8
BLACK
6
CONTINUOUS
10
170.849
20
-108.498
11
171.032
21
-108.429
0
LINE
8
BLACK
6
CONTINUOUS
10
171.032
20
-108.429
11
171.24
21
-108.326
0
LINE
8
BLACK
6
CONTINUOUS
10
171.24
20
-108.326
11
171.433
21
-108.202
0
LINE
8
BLACK
6
CONTINUOUS
10
171.433
20
-108.202
11
171.61
21
-108.058
0
LINE
8
BLACK
6
CONTINUOUS
10
171.61
20
-108.058
11
171.77
21
-107.897
0
LINE
8
BLACK
6
CONTINUOUS
10
171.77
20
-107.897
11
171.912
21
-107.72
0
LINE
8
BLACK
6
CONTINUOUS
10
171.912
20
-107.72
11
172.035
21
-107.528
0
LINE
8
BLACK
6
CONTINUOUS
10
172.035
20
-107.528
11
172.136
21
-107.322
0
LINE
8
BLACK
6
CONTINUOUS
10
172.136
20
-107.322
11
172.215
21
-107.104
0
LINE
8
BLACK
6
CONTINUOUS
10
172.215
20
-107.104
11
172.271
21
-106.876
0
LINE
8
BLACK
6
CONTINUOUS
10
172.271
20
-106.876
11
172.272
21
-106.869
0
LINE
8
BLACK
6
CONTINUOUS
10
172.272
20
-106.869
11
172.284
21
-106.78
0
LINE
8
BLACK
6
CONTINUOUS
10
172.284
20
-106.78
11
172.292
21
-106.674
0
LINE
8
BLACK
6
CONTINUOUS
10
172.292
20
-106.674
11
172.296
21
-106.557
0
LINE
8
BLACK
6
CONTINUOUS
10
172.296
20
-106.557
11
172.296
21
-106.438
0
LINE
8
BLACK
6
CONTINUOUS
10
172.296
20
-106.438
11
172.292
21
-106.324
0
LINE
8
BLACK
6
CONTINUOUS
10
172.292
20
-106.324
11
172.284
21
-106.221
0
LINE
8
BLACK
6
CONTINUOUS
10
172.284
20
-106.221
11
172.272
21
-106.137
0
LINE
8
BLACK
6
CONTINUOUS
10
172.272
20
-106.137
11
172.252
21
-106.045
0
LINE
8
BLACK
6
CONTINUOUS
10
172.252
20
-106.045
11
172.184
21
-105.816
0
LINE
8
BLACK
6
CONTINUOUS
10
172.184
20
-105.816
11
172.093
21
-105.599
0
LINE
8
BLACK
6
CONTINUOUS
10
172.093
20
-105.599
11
171.979
21
-105.394
0
LINE
8
BLACK
6
CONTINUOUS
10
171.979
20
-105.394
11
171.844
21
-105.204
0
LINE
8
BLACK
6
CONTINUOUS
10
171.844
20
-105.204
11
171.688
21
-105.029
0
LINE
8
BLACK
6
CONTINUOUS
10
171.688
20
-105.029
11
171.629
21
-104.972
0
LINE
8
BLACK
6
CONTINUOUS
10
171.629
20
-104.972
11
171.477
21
-104.843
0
LINE
8
BLACK
6
CONTINUOUS
10
171.477
20
-104.843
11
171.314
21
-104.732
0
LINE
8
BLACK
6
CONTINUOUS
10
171.314
20
-104.732
11
171.134
21
-104.633
0
LINE
8
BLACK
6
CONTINUOUS
10
171.134
20
-104.633
11
171.059
21
-104.597
0
LINE
8
BLACK
6
CONTINUOUS
10
171.059
20
-104.597
11
170.877
21
-104.524
0
LINE
8
BLACK
6
CONTINUOUS
10
170.877
20
-104.524
11
170.696
21
-104.47
0
LINE
8
BLACK
6
CONTINUOUS
10
170.696
20
-104.47
11
170.512
21
-104.435
0
LINE
8
BLACK
6
CONTINUOUS
10
170.512
20
-104.435
11
170.319
21
-104.419
0
LINE
8
BLACK
6
CONTINUOUS
10
170.319
20
-104.419
11
170.109
21
-104.418
0
LINE
8
BLACK
6
CONTINUOUS
10
170.109
20
-104.418
11
169.9
21
-104.426
0
LINE
8
BLACK
6
CONTINUOUS
10
169.9
20
-104.426
11
169.9
21
-104.425
0
LINE
8
BLACK
6
CONTINUOUS
10
169.9
20
-104.425
11
169.9
21
-104.426
0
LINE
8
BLACK
6
CONTINUOUS
10
169.9
20
-104.426
11
169.898
21
-104.425
0
LINE
8
BLACK
6
CONTINUOUS
10
169.898
20
-104.425
11
169.896
21
-104.424
0
LINE
8
BLACK
6
CONTINUOUS
10
169.896
20
-104.424
11
169.896
21
-104.424
0
LINE
8
BLACK
6
CONTINUOUS
10
169.896
20
-104.424
11
169.896
21
-104.424
0
LINE
8
BLACK
6
CONTINUOUS
10
169.896
20
-104.424
11
169.895
21
-104.422
0
LINE
8
BLACK
6
CONTINUOUS
10
169.895
20
-104.422
11
169.895
21
-104.421
0
LINE
8
BLACK
6
CONTINUOUS
10
169.895
20
-104.421
11
169.895
21
-104.421
0
LINE
8
BLACK
6
CONTINUOUS
10
169.895
20
-104.421
11
169.895
21
-104.421
0
LINE
8
BLACK
6
CONTINUOUS
10
169.895
20
-104.421
11
169.895
21
-103.5
0
LINE
8
BLACK
6
CONTINUOUS
10
169.895
20
-103.5
11
169.895
21
-103.499
0
LINE
8
BLACK
6
CONTINUOUS
10
169.895
20
-103.499
11
169.895
21
-103.498
0
LINE
8
BLACK
6
CONTINUOUS
10
169.895
20
-103.498
11
169.896
21
-103.497
0
LINE
8
BLACK
6
CONTINUOUS
10
169.896
20
-103.497
11
169.896
21
-103.497
0
LINE
8
BLACK
6
CONTINUOUS
10
169.896
20
-103.497
11
169.897
21
-103.496
0
LINE
8
BLACK
6
CONTINUOUS
10
169.897
20
-103.496
11
169.898
21
-103.495
0
LINE
8
BLACK
6
CONTINUOUS
10
169.898
20
-103.495
11
169.928
21
-103.487
0
LINE
8
BLACK
6
CONTINUOUS
10
169.928
20
-103.487
11
169.928
21
-103.487
0
LINE
8
BLACK
6
CONTINUOUS
10
169.928
20
-103.487
11
169.929
21
-103.487
0
LINE
8
BLACK
6
CONTINUOUS
10
169.929
20
-103.487
11
169.949
21
-103.484
0
LINE
8
BLACK
6
CONTINUOUS
10
169.949
20
-103.484
11
169.949
21
-103.484
0
LINE
8
BLACK
6
CONTINUOUS
10
169.949
20
-103.484
11
169.949
21
-103.484
0
LINE
8
BLACK
6
CONTINUOUS
10
169.949
20
-103.484
11
169.996
21
-103.481
0
LINE
8
BLACK
6
CONTINUOUS
10
169.996
20
-103.481
11
169.996
21
-103.481
0
LINE
8
BLACK
6
CONTINUOUS
10
169.996
20
-103.481
11
169.996
21
-103.481
0
LINE
8
BLACK
6
CONTINUOUS
10
169.996
20
-103.481
11
170.061
21
-103.479
0
LINE
8
BLACK
6
CONTINUOUS
10
170.061
20
-103.479
11
170.061
21
-103.479
0
LINE
8
BLACK
6
CONTINUOUS
10
170.061
20
-103.479
11
170.061
21
-103.479
0
LINE
8
BLACK
6
CONTINUOUS
10
170.061
20
-103.479
11
170.138
21
-103.479
0
LINE
8
BLACK
6
CONTINUOUS
10
170.138
20
-103.479
11
170.138
21
-103.479
0
LINE
8
BLACK
6
CONTINUOUS
10
170.138
20
-103.479
11
170.138
21
-103.479
0
LINE
8
BLACK
6
CONTINUOUS
10
170.138
20
-103.479
11
170.224
21
-103.48
0
LINE
8
BLACK
6
CONTINUOUS
10
142.678
20
-102.479
11
142.679
21
-102.48
0
LINE
8
BLACK
6
CONTINUOUS
10
142.679
20
-102.48
11
142.679
21
-102.48
0
LINE
8
BLACK
6
CONTINUOUS
10
142.679
20
-102.48
11
142.679
21
-102.48
0
LINE
8
BLACK
6
CONTINUOUS
10
142.679
20
-102.48
11
143.4
21
-103.21
0
LINE
8
BLACK
6
CONTINUOUS
10
143.4
20
-103.21
11
143.469
21
-103.28
0
LINE
8
BLACK
6
CONTINUOUS
10
143.469
20
-103.28
11
143.469
21
-103.28
0
LINE
8
BLACK
6
CONTINUOUS
10
143.469
20
-103.28
11
143.614
21
-103.426
0
LINE
8
BLACK
6
CONTINUOUS
10
143.614
20
-103.426
11
143.737
21
-103.55
0
LINE
8
BLACK
6
CONTINUOUS
10
143.737
20
-103.55
11
143.841
21
-103.654
0
LINE
8
BLACK
6
CONTINUOUS
10
143.841
20
-103.654
11
143.841
21
-103.654
0
LINE
8
BLACK
6
CONTINUOUS
10
143.841
20
-103.654
11
143.927
21
-103.739
0
LINE
8
BLACK
6
CONTINUOUS
10
143.927
20
-103.739
11
143.927
21
-103.739
0
LINE
8
BLACK
6
CONTINUOUS
10
143.927
20
-103.739
11
143.998
21
-103.807
0
LINE
8
BLACK
6
CONTINUOUS
10
143.998
20
-103.807
11
144.053
21
-103.858
0
LINE
8
BLACK
6
CONTINUOUS
10
144.053
20
-103.858
11
144.096
21
-103.896
0
LINE
8
BLACK
6
CONTINUOUS
10
144.096
20
-103.896
11
144.127
21
-103.921
0
LINE
8
BLACK
6
CONTINUOUS
10
144.127
20
-103.921
11
144.147
21
-103.934
0
LINE
8
BLACK
6
CONTINUOUS
10
144.147
20
-103.934
11
144.159
21
-103.938
0
LINE
8
BLACK
6
CONTINUOUS
10
144.159
20
-103.938
11
144.179
21
-103.937
0
LINE
8
BLACK
6
CONTINUOUS
10
144.179
20
-103.937
11
144.189
21
-103.93
0
LINE
8
BLACK
6
CONTINUOUS
10
144.189
20
-103.93
11
144.191
21
-103.906
0
LINE
8
BLACK
6
CONTINUOUS
10
144.191
20
-103.906
11
144.186
21
-103.856
0
LINE
8
BLACK
6
CONTINUOUS
10
144.186
20
-103.856
11
144.182
21
-103.824
0
LINE
8
BLACK
6
CONTINUOUS
10
144.182
20
-103.824
11
144.182
21
-103.824
0
LINE
8
BLACK
6
CONTINUOUS
10
144.182
20
-103.824
11
144.182
21
-103.824
0
LINE
8
BLACK
6
CONTINUOUS
10
144.182
20
-103.824
11
144.177
21
-103.77
0
LINE
8
BLACK
6
CONTINUOUS
10
144.177
20
-103.77
11
144.177
21
-103.77
0
LINE
8
BLACK
6
CONTINUOUS
10
144.177
20
-103.77
11
144.177
21
-103.77
0
LINE
8
BLACK
6
CONTINUOUS
10
144.177
20
-103.77
11
144.175
21
-103.735
0
LINE
8
BLACK
6
CONTINUOUS
10
144.175
20
-103.735
11
144.174
21
-103.724
0
LINE
8
BLACK
6
CONTINUOUS
10
144.174
20
-103.724
11
144.167
21
-103.714
0
LINE
8
BLACK
6
CONTINUOUS
10
144.167
20
-103.714
11
144.142
21
-103.71
0
LINE
8
BLACK
6
CONTINUOUS
10
144.142
20
-103.71
11
144.091
21
-103.712
0
LINE
8
BLACK
6
CONTINUOUS
10
144.091
20
-103.712
11
144.078
21
-103.712
0
LINE
8
BLACK
6
CONTINUOUS
10
144.078
20
-103.712
11
144.078
21
-103.712
0
LINE
8
BLACK
6
CONTINUOUS
10
144.078
20
-103.712
11
144.078
21
-103.712
0
LINE
8
BLACK
6
CONTINUOUS
10
144.078
20
-103.712
11
144.025
21
-103.711
0
LINE
8
BLACK
6
CONTINUOUS
10
144.025
20
-103.711
11
144.024
21
-103.711
0
LINE
8
BLACK
6
CONTINUOUS
10
144.024
20
-103.711
11
144.023
21
-103.711
0
LINE
8
BLACK
6
CONTINUOUS
10
144.023
20
-103.711
11
143.986
21
-103.7
0
LINE
8
BLACK
6
CONTINUOUS
10
143.986
20
-103.7
11
143.985
21
-103.699
0
LINE
8
BLACK
6
CONTINUOUS
10
143.985
20
-103.699
11
143.984
21
-103.699
0
LINE
8
BLACK
6
CONTINUOUS
10
143.984
20
-103.699
11
143.947
21
-103.672
0
LINE
8
BLACK
6
CONTINUOUS
10
143.947
20
-103.672
11
143.947
21
-103.672
0
LINE
8
BLACK
6
CONTINUOUS
10
143.947
20
-103.672
11
143.947
21
-103.672
0
LINE
8
BLACK
6
CONTINUOUS
10
143.947
20
-103.672
11
143.94
21
-103.667
0
LINE
8
BLACK
6
CONTINUOUS
10
143.94
20
-103.667
11
143.94
21
-103.666
0
LINE
8
BLACK
6
CONTINUOUS
10
143.94
20
-103.666
11
143.94
21
-103.666
0
LINE
8
BLACK
6
CONTINUOUS
10
143.94
20
-103.666
11
143.887
21
-103.599
0
LINE
8
BLACK
6
CONTINUOUS
10
143.887
20
-103.599
11
143.887
21
-103.598
0
LINE
8
BLACK
6
CONTINUOUS
10
143.887
20
-103.598
11
143.886
21
-103.597
0
LINE
8
BLACK
6
CONTINUOUS
10
143.886
20
-103.597
11
143.863
21
-103.519
0
LINE
8
BLACK
6
CONTINUOUS
10
143.863
20
-103.519
11
143.864
21
-103.518
0
LINE
8
BLACK
6
CONTINUOUS
10
143.864
20
-103.518
11
143.863
21
-103.517
0
LINE
8
BLACK
6
CONTINUOUS
10
143.863
20
-103.517
11
143.87
21
-103.436
0
LINE
8
BLACK
6
CONTINUOUS
10
143.87
20
-103.436
11
143.871
21
-103.435
0
LINE
8
BLACK
6
CONTINUOUS
10
143.871
20
-103.435
11
143.871
21
-103.434
0
LINE
8
BLACK
6
CONTINUOUS
10
143.871
20
-103.434
11
143.909
21
-103.355
0
LINE
8
BLACK
6
CONTINUOUS
10
143.909
20
-103.355
11
143.909
21
-103.355
0
LINE
8
BLACK
6
CONTINUOUS
10
143.909
20
-103.355
11
143.909
21
-103.354
0
LINE
8
BLACK
6
CONTINUOUS
10
143.909
20
-103.354
11
143.913
21
-103.35
0
LINE
8
BLACK
6
CONTINUOUS
10
143.913
20
-103.35
11
143.913
21
-103.349
0
LINE
8
BLACK
6
CONTINUOUS
10
143.913
20
-103.349
11
143.914
21
-103.349
0
LINE
8
BLACK
6
CONTINUOUS
10
143.914
20
-103.349
11
143.964
21
-103.306
0
LINE
8
BLACK
6
CONTINUOUS
10
143.964
20
-103.306
11
143.965
21
-103.306
0
LINE
8
BLACK
6
CONTINUOUS
10
143.965
20
-103.306
11
143.966
21
-103.306
0
LINE
8
BLACK
6
CONTINUOUS
10
143.966
20
-103.306
11
144.032
21
-103.281
0
LINE
8
BLACK
6
CONTINUOUS
10
144.032
20
-103.281
11
144.032
21
-103.281
0
LINE
8
BLACK
6
CONTINUOUS
10
144.032
20
-103.281
11
144.033
21
-103.28
0
LINE
8
BLACK
6
CONTINUOUS
10
144.033
20
-103.28
11
144.104
21
-103.274
0
LINE
8
BLACK
6
CONTINUOUS
10
144.104
20
-103.274
11
144.105
21
-103.274
0
LINE
8
BLACK
6
CONTINUOUS
10
144.105
20
-103.274
11
144.106
21
-103.274
0
LINE
8
BLACK
6
CONTINUOUS
10
144.106
20
-103.274
11
144.172
21
-103.287
0
LINE
8
BLACK
6
CONTINUOUS
10
144.172
20
-103.287
11
144.172
21
-103.287
0
LINE
8
BLACK
6
CONTINUOUS
10
144.172
20
-103.287
11
144.173
21
-103.287
0
LINE
8
BLACK
6
CONTINUOUS
10
144.173
20
-103.287
11
144.224
21
-103.321
0
LINE
8
BLACK
6
CONTINUOUS
10
144.224
20
-103.321
11
144.224
21
-103.321
0
LINE
8
BLACK
6
CONTINUOUS
10
144.224
20
-103.321
11
144.225
21
-103.321
0
LINE
8
BLACK
6
CONTINUOUS
10
144.225
20
-103.321
11
144.241
21
-103.337
0
LINE
8
BLACK
6
CONTINUOUS
10
144.241
20
-103.337
11
144.255
21
-103.341
0
LINE
8
BLACK
6
CONTINUOUS
10
144.255
20
-103.341
11
144.277
21
-103.329
0
LINE
8
BLACK
6
CONTINUOUS
10
144.277
20
-103.329
11
144.317
21
-103.297
0
LINE
8
BLACK
6
CONTINUOUS
10
144.317
20
-103.297
11
144.317
21
-103.297
0
LINE
8
BLACK
6
CONTINUOUS
10
144.317
20
-103.297
11
144.329
21
-103.288
0
LINE
8
BLACK
6
CONTINUOUS
10
144.329
20
-103.288
11
144.329
21
-103.288
0
LINE
8
BLACK
6
CONTINUOUS
10
144.329
20
-103.288
11
144.33
21
-103.287
0
LINE
8
BLACK
6
CONTINUOUS
10
144.33
20
-103.287
11
144.425
21
-103.226
0
LINE
8
BLACK
6
CONTINUOUS
10
144.425
20
-103.226
11
144.426
21
-103.226
0
LINE
8
BLACK
6
CONTINUOUS
10
144.426
20
-103.226
11
144.426
21
-103.225
0
LINE
8
BLACK
6
CONTINUOUS
10
144.426
20
-103.225
11
144.54
21
-103.171
0
LINE
8
BLACK
6
CONTINUOUS
10
144.54
20
-103.171
11
144.54
21
-103.171
0
LINE
8
BLACK
6
CONTINUOUS
10
144.54
20
-103.171
11
144.54
21
-103.17
0
LINE
8
BLACK
6
CONTINUOUS
10
144.54
20
-103.17
11
144.661
21
-103.126
0
LINE
8
BLACK
6
CONTINUOUS
10
144.661
20
-103.126
11
144.661
21
-103.126
0
LINE
8
BLACK
6
CONTINUOUS
10
144.661
20
-103.126
11
144.661
21
-103.126
0
LINE
8
BLACK
6
CONTINUOUS
10
144.661
20
-103.126
11
144.779
21
-103.097
0
LINE
8
BLACK
6
CONTINUOUS
10
144.779
20
-103.097
11
144.779
21
-103.097
0
LINE
8
BLACK
6
CONTINUOUS
10
144.779
20
-103.097
11
144.779
21
-103.097
0
LINE
8
BLACK
6
CONTINUOUS
10
144.779
20
-103.097
11
144.883
21
-103.086
0
LINE
8
BLACK
6
CONTINUOUS
10
144.883
20
-103.086
11
144.883
21
-103.086
0
LINE
8
BLACK
6
CONTINUOUS
10
144.883
20
-103.086
11
144.883
21
-103.086
0
LINE
8
BLACK
6
CONTINUOUS
10
144.883
20
-103.086
11
144.894
21
-103.086
0
LINE
8
BLACK
6
CONTINUOUS
10
144.894
20
-103.086
11
144.954
21
-103.08
0
LINE
8
BLACK
6
CONTINUOUS
10
144.954
20
-103.08
11
144.984
21
-103.065
0
LINE
8
BLACK
6
CONTINUOUS
10
144.984
20
-103.065
11
144.994
21
-103.038
0
LINE
8
BLACK
6
CONTINUOUS
10
144.994
20
-103.038
11
144.995
21
-103.029
0
LINE
8
BLACK
6
CONTINUOUS
10
144.995
20
-103.029
11
144.996
21
-103.028
0
LINE
8
BLACK
6
CONTINUOUS
10
144.996
20
-103.028
11
144.996
21
-103.027
0
LINE
8
BLACK
6
CONTINUOUS
10
144.996
20
-103.027
11
145.003
21
-103.019
0
LINE
8
BLACK
6
CONTINUOUS
10
145.003
20
-103.019
11
145.004
21
-103.018
0
LINE
8
BLACK
6
CONTINUOUS
10
145.004
20
-103.018
11
145.005
21
-103.017
0
LINE
8
BLACK
6
CONTINUOUS
10
145.005
20
-103.017
11
145.021
21
-103.011
0
LINE
8
BLACK
6
CONTINUOUS
10
145.021
20
-103.011
11
145.021
21
-103.012
0
LINE
8
BLACK
6
CONTINUOUS
10
145.021
20
-103.012
11
145.022
21
-103.011
0
LINE
8
BLACK
6
CONTINUOUS
10
145.022
20
-103.011
11
145.051
21
-103.007
0
LINE
8
BLACK
6
CONTINUOUS
10
145.051
20
-103.007
11
145.051
21
-103.007
0
LINE
8
BLACK
6
CONTINUOUS
10
145.051
20
-103.007
11
145.051
21
-103.007
0
LINE
8
BLACK
6
CONTINUOUS
10
145.051
20
-103.007
11
145.098
21
-103.005
0
LINE
8
BLACK
6
CONTINUOUS
10
145.098
20
-103.005
11
145.098
21
-103.005
0
LINE
8
BLACK
6
CONTINUOUS
10
145.098
20
-103.005
11
145.098
21
-103.005
0
LINE
8
BLACK
6
CONTINUOUS
10
145.098
20
-103.005
11
145.166
21
-103.003
0
LINE
8
BLACK
6
CONTINUOUS
10
145.166
20
-103.003
11
145.166
21
-103.003
0
LINE
8
BLACK
6
CONTINUOUS
10
145.166
20
-103.003
11
145.167
21
-103.003
0
LINE
8
BLACK
6
CONTINUOUS
10
145.167
20
-103.003
11
145.26
21
-103.003
0
LINE
8
BLACK
6
CONTINUOUS
10
145.26
20
-103.003
11
145.26
21
-103.003
0
LINE
8
BLACK
6
CONTINUOUS
10
145.26
20
-103.003
11
145.26
21
-103.003
0
LINE
8
BLACK
6
CONTINUOUS
10
145.26
20
-103.003
11
145.383
21
-103.002
0
LINE
8
BLACK
6
CONTINUOUS
10
145.383
20
-103.002
11
145.383
21
-103.003
0
LINE
8
BLACK
6
CONTINUOUS
10
145.383
20
-103.003
11
145.383
21
-103.002
0
LINE
8
BLACK
6
CONTINUOUS
10
145.383
20
-103.002
11
145.498
21
-103.003
0
LINE
8
BLACK
6
CONTINUOUS
10
145.498
20
-103.003
11
145.498
21
-103.003
0
LINE
8
BLACK
6
CONTINUOUS
10
145.498
20
-103.003
11
145.498
21
-103.003
0
LINE
8
BLACK
6
CONTINUOUS
10
145.498
20
-103.003
11
145.596
21
-103.004
0
LINE
8
BLACK
6
CONTINUOUS
10
145.596
20
-103.004
11
145.596
21
-103.004
0
LINE
8
BLACK
6
CONTINUOUS
10
145.596
20
-103.004
11
145.596
21
-103.004
0
LINE
8
BLACK
6
CONTINUOUS
10
145.596
20
-103.004
11
145.668
21
-103.005
0
LINE
8
BLACK
6
CONTINUOUS
10
145.668
20
-103.005
11
145.668
21
-103.006
0
LINE
8
BLACK
6
CONTINUOUS
10
145.668
20
-103.006
11
145.668
21
-103.005
0
LINE
8
BLACK
6
CONTINUOUS
10
145.668
20
-103.005
11
145.717
21
-103.008
0
LINE
8
BLACK
6
CONTINUOUS
10
145.717
20
-103.008
11
145.718
21
-103.009
0
LINE
8
BLACK
6
CONTINUOUS
10
145.718
20
-103.009
11
145.718
21
-103.009
0
LINE
8
BLACK
6
CONTINUOUS
10
145.718
20
-103.009
11
145.748
21
-103.013
0
LINE
8
BLACK
6
CONTINUOUS
10
145.748
20
-103.013
11
145.749
21
-103.013
0
LINE
8
BLACK
6
CONTINUOUS
10
145.749
20
-103.013
11
145.749
21
-103.013
0
LINE
8
BLACK
6
CONTINUOUS
10
145.749
20
-103.013
11
145.765
21
-103.019
0
LINE
8
BLACK
6
CONTINUOUS
10
145.765
20
-103.019
11
145.766
21
-103.02
0
LINE
8
BLACK
6
CONTINUOUS
10
145.766
20
-103.02
11
145.767
21
-103.021
0
LINE
8
BLACK
6
CONTINUOUS
10
145.767
20
-103.021
11
145.772
21
-103.029
0
LINE
8
BLACK
6
CONTINUOUS
10
145.772
20
-103.029
11
145.785
21
-103.047
0
LINE
8
BLACK
6
CONTINUOUS
10
145.785
20
-103.047
11
145.823
21
-103.059
0
LINE
8
BLACK
6
CONTINUOUS
10
145.823
20
-103.059
11
145.838
21
-103.061
0
LINE
8
BLACK
6
CONTINUOUS
10
145.838
20
-103.061
11
145.838
21
-103.061
0
LINE
8
BLACK
6
CONTINUOUS
10
145.838
20
-103.061
11
145.838
21
-103.061
0
LINE
8
BLACK
6
CONTINUOUS
10
145.838
20
-103.061
11
145.89
21
-103.068
0
LINE
8
BLACK
6
CONTINUOUS
10
145.89
20
-103.068
11
145.89
21
-103.068
0
LINE
8
BLACK
6
CONTINUOUS
10
145.89
20
-103.068
11
145.89
21
-103.068
0
LINE
8
BLACK
6
CONTINUOUS
10
145.89
20
-103.068
11
145.959
21
-103.079
0
LINE
8
BLACK
6
CONTINUOUS
10
145.959
20
-103.079
11
145.959
21
-103.079
0
LINE
8
BLACK
6
CONTINUOUS
10
145.959
20
-103.079
11
145.959
21
-103.079
0
LINE
8
BLACK
6
CONTINUOUS
10
145.959
20
-103.079
11
146.035
21
-103.09
0
LINE
8
BLACK
6
CONTINUOUS
10
146.035
20
-103.09
11
146.077
21
-103.096
0
LINE
8
BLACK
6
CONTINUOUS
10
146.077
20
-103.096
11
146.138
21
-103.102
0
LINE
8
BLACK
6
CONTINUOUS
10
146.138
20
-103.102
11
146.181
21
-103.104
0
LINE
8
BLACK
6
CONTINUOUS
10
146.181
20
-103.104
11
146.197
21
-103.101
0
LINE
8
BLACK
6
CONTINUOUS
10
146.197
20
-103.101
11
146.199
21
-103.099
0
LINE
8
BLACK
6
CONTINUOUS
10
146.199
20
-103.099
11
146.2
21
-103.099
0
LINE
8
BLACK
6
CONTINUOUS
10
146.2
20
-103.099
11
146.201
21
-103.098
0
LINE
8
BLACK
6
CONTINUOUS
10
146.201
20
-103.098
11
146.229
21
-103.092
0
LINE
8
BLACK
6
CONTINUOUS
10
146.229
20
-103.092
11
146.229
21
-103.092
0
LINE
8
BLACK
6
CONTINUOUS
10
146.229
20
-103.092
11
146.23
21
-103.092
0
LINE
8
BLACK
6
CONTINUOUS
10
146.23
20
-103.092
11
146.28
21
-103.088
0
LINE
8
BLACK
6
CONTINUOUS
10
146.28
20
-103.088
11
146.28
21
-103.088
0
LINE
8
BLACK
6
CONTINUOUS
10
146.28
20
-103.088
11
146.28
21
-103.088
0
LINE
8
BLACK
6
CONTINUOUS
10
146.28
20
-103.088
11
146.345
21
-103.086
0
LINE
8
BLACK
6
CONTINUOUS
10
146.345
20
-103.086
11
146.345
21
-103.086
0
LINE
8
BLACK
6
CONTINUOUS
10
146.345
20
-103.086
11
146.345
21
-103.086
0
LINE
8
BLACK
6
CONTINUOUS
10
146.345
20
-103.086
11
146.486
21
-103.086
0
LINE
8
BLACK
6
CONTINUOUS
10
146.486
20
-103.086
11
146.488
21
-103.087
0
LINE
8
BLACK
6
CONTINUOUS
10
146.488
20
-103.087
11
146.489
21
-103.088
0
LINE
8
BLACK
6
CONTINUOUS
10
146.489
20
-103.088
11
146.489
21
-103.088
0
LINE
8
BLACK
6
CONTINUOUS
10
146.489
20
-103.088
11
146.49
21
-103.089
0
LINE
8
BLACK
6
CONTINUOUS
10
146.49
20
-103.089
11
146.491
21
-103.091
0
LINE
8
BLACK
6
CONTINUOUS
10
146.491
20
-103.091
11
146.491
21
-103.141
0
LINE
8
BLACK
6
CONTINUOUS
10
146.491
20
-103.141
11
146.491
21
-103.141
0
LINE
8
BLACK
6
CONTINUOUS
10
146.491
20
-103.141
11
146.491
21
-103.145
0
LINE
8
BLACK
6
CONTINUOUS
10
146.491
20
-103.145
11
146.492
21
-103.162
0
LINE
8
BLACK
6
CONTINUOUS
10
146.492
20
-103.162
11
146.5
21
-103.189
0
LINE
8
BLACK
6
CONTINUOUS
10
146.5
20
-103.189
11
146.523
21
-103.212
0
LINE
8
BLACK
6
CONTINUOUS
10
146.523
20
-103.212
11
146.57
21
-103.241
0
LINE
8
BLACK
6
CONTINUOUS
10
146.57
20
-103.241
11
146.57
21
-103.241
0
LINE
8
BLACK
6
CONTINUOUS
10
146.57
20
-103.241
11
146.57
21
-103.241
0
LINE
8
BLACK
6
CONTINUOUS
10
146.57
20
-103.241
11
146.611
21
-103.268
0
LINE
8
BLACK
6
CONTINUOUS
10
146.611
20
-103.268
11
146.611
21
-103.268
0
LINE
8
BLACK
6
CONTINUOUS
10
146.611
20
-103.268
11
146.612
21
-103.268
0
LINE
8
BLACK
6
CONTINUOUS
10
146.612
20
-103.268
11
146.675
21
-103.319
0
LINE
8
BLACK
6
CONTINUOUS
10
146.675
20
-103.319
11
146.675
21
-103.319
0
LINE
8
BLACK
6
CONTINUOUS
10
146.675
20
-103.319
11
146.676
21
-103.319
0
LINE
8
BLACK
6
CONTINUOUS
10
146.676
20
-103.319
11
146.733
21
-103.377
0
LINE
8
BLACK
6
CONTINUOUS
10
146.733
20
-103.377
11
146.733
21
-103.377
0
LINE
8
BLACK
6
CONTINUOUS
10
146.733
20
-103.377
11
146.733
21
-103.377
0
LINE
8
BLACK
6
CONTINUOUS
10
146.733
20
-103.377
11
146.777
21
-103.433
0
LINE
8
BLACK
6
CONTINUOUS
10
146.777
20
-103.433
11
146.777
21
-103.434
0
LINE
8
BLACK
6
CONTINUOUS
10
146.777
20
-103.434
11
146.778
21
-103.434
0
LINE
8
BLACK
6
CONTINUOUS
10
146.778
20
-103.434
11
146.801
21
-103.481
0
LINE
8
BLACK
6
CONTINUOUS
10
146.801
20
-103.481
11
146.801
21
-103.481
0
LINE
8
BLACK
6
CONTINUOUS
10
146.801
20
-103.481
11
146.801
21
-103.481
0
LINE
8
BLACK
6
CONTINUOUS
10
146.801
20
-103.481
11
146.806
21
-103.498
0
LINE
8
BLACK
6
CONTINUOUS
10
146.806
20
-103.498
11
146.816
21
-103.51
0
LINE
8
BLACK
6
CONTINUOUS
10
146.816
20
-103.51
11
146.819
21
-103.513
0
LINE
8
BLACK
6
CONTINUOUS
10
146.819
20
-103.513
11
146.845
21
-103.519
0
LINE
8
BLACK
6
CONTINUOUS
10
146.845
20
-103.519
11
146.897
21
-103.521
0
LINE
8
BLACK
6
CONTINUOUS
10
146.897
20
-103.521
11
146.987
21
-103.521
0
LINE
8
BLACK
6
CONTINUOUS
10
146.987
20
-103.521
11
146.991
21
-103.522
0
LINE
8
BLACK
6
CONTINUOUS
10
146.991
20
-103.522
11
146.992
21
-103.526
0
LINE
8
BLACK
6
CONTINUOUS
10
146.992
20
-103.526
11
146.992
21
-103.676
0
LINE
8
BLACK
6
CONTINUOUS
10
146.992
20
-103.676
11
146.991
21
-103.679
0
LINE
8
BLACK
6
CONTINUOUS
10
146.991
20
-103.679
11
146.987
21
-103.681
0
LINE
8
BLACK
6
CONTINUOUS
10
146.987
20
-103.681
11
146.78
21
-103.681
0
LINE
8
BLACK
6
CONTINUOUS
10
146.78
20
-103.681
11
146.76
21
-103.913
0
LINE
8
BLACK
6
CONTINUOUS
10
146.76
20
-103.913
11
146.76
21
-103.913
0
LINE
8
BLACK
6
CONTINUOUS
10
146.76
20
-103.913
11
146.758
21
-103.945
0
LINE
8
BLACK
6
CONTINUOUS
10
146.758
20
-103.945
11
146.752
21
-104.026
0
LINE
8
BLACK
6
CONTINUOUS
10
146.752
20
-104.026
11
146.752
21
-104.026
0
LINE
8
BLACK
6
CONTINUOUS
10
146.752
20
-104.026
11
146.747
21
-104.091
0
LINE
8
BLACK
6
CONTINUOUS
10
146.747
20
-104.091
11
146.745
21
-104.136
0
LINE
8
BLACK
6
CONTINUOUS
10
146.745
20
-104.136
11
146.745
21
-104.142
0
LINE
8
BLACK
6
CONTINUOUS
10
146.745
20
-104.142
11
146.769
21
-104.119
0
LINE
8
BLACK
6
CONTINUOUS
10
146.769
20
-104.119
11
146.814
21
-104.072
0
LINE
8
BLACK
6
CONTINUOUS
10
146.814
20
-104.072
11
146.814
21
-104.072
0
LINE
8
BLACK
6
CONTINUOUS
10
146.814
20
-104.072
11
146.877
21
-104.008
0
LINE
8
BLACK
6
CONTINUOUS
10
146.877
20
-104.008
11
146.953
21
-103.929
0
LINE
8
BLACK
6
CONTINUOUS
10
146.953
20
-103.929
11
147.042
21
-103.836
0
LINE
8
BLACK
6
CONTINUOUS
10
147.042
20
-103.836
11
147.042
21
-103.836
0
LINE
8
BLACK
6
CONTINUOUS
10
147.042
20
-103.836
11
147.142
21
-103.733
0
LINE
8
BLACK
6
CONTINUOUS
10
147.142
20
-103.733
11
147.142
21
-103.733
0
LINE
8
BLACK
6
CONTINUOUS
10
147.142
20
-103.733
11
147.248
21
-103.622
0
LINE
8
BLACK
6
CONTINUOUS
10
147.248
20
-103.622
11
147.36
21
-103.505
0
LINE
8
BLACK
6
CONTINUOUS
10
147.36
20
-103.505
11
147.475
21
-103.384
0
LINE
8
BLACK
6
CONTINUOUS
10
147.475
20
-103.384
11
147.475
21
-103.384
0
LINE
8
BLACK
6
CONTINUOUS
10
147.475
20
-103.384
11
147.591
21
-103.263
0
LINE
8
BLACK
6
CONTINUOUS
10
147.591
20
-103.263
11
147.706
21
-103.143
0
LINE
8
BLACK
6
CONTINUOUS
10
147.706
20
-103.143
11
147.816
21
-103.027
0
LINE
8
BLACK
6
CONTINUOUS
10
147.816
20
-103.027
11
147.816
21
-103.027
0
LINE
8
BLACK
6
CONTINUOUS
10
147.816
20
-103.027
11
147.92
21
-102.917
0
LINE
8
BLACK
6
CONTINUOUS
10
147.92
20
-102.917
11
147.92
21
-102.917
0
LINE
8
BLACK
6
CONTINUOUS
10
147.92
20
-102.917
11
148.016
21
-102.816
0
LINE
8
BLACK
6
CONTINUOUS
10
148.016
20
-102.816
11
148.016
21
-102.816
0
LINE
8
BLACK
6
CONTINUOUS
10
148.016
20
-102.816
11
148.101
21
-102.726
0
LINE
8
BLACK
6
CONTINUOUS
10
148.101
20
-102.726
11
148.101
21
-102.726
0
LINE
8
BLACK
6
CONTINUOUS
10
148.101
20
-102.726
11
148.174
21
-102.649
0
LINE
8
BLACK
6
CONTINUOUS
10
148.174
20
-102.649
11
148.303
21
-102.511
0
LINE
8
BLACK
6
CONTINUOUS
10
148.303
20
-102.511
11
148.303
21
-102.511
0
LINE
8
BLACK
6
CONTINUOUS
10
148.303
20
-102.511
11
148.303
21
-102.511
0
LINE
8
BLACK
6
CONTINUOUS
10
148.303
20
-102.511
11
148.304
21
-102.51
0
LINE
8
BLACK
6
CONTINUOUS
10
148.304
20
-102.51
11
148.306
21
-102.51
0
LINE
8
BLACK
6
CONTINUOUS
10
148.306
20
-102.51
11
148.306
21
-102.51
0
LINE
8
BLACK
6
CONTINUOUS
10
148.306
20
-102.51
11
148.306
21
-102.51
0
LINE
8
BLACK
6
CONTINUOUS
10
148.306
20
-102.51
11
148.308
21
-102.51
0
LINE
8
BLACK
6
CONTINUOUS
10
148.308
20
-102.51
11
148.31
21
-102.511
0
LINE
8
BLACK
6
CONTINUOUS
10
148.31
20
-102.511
11
148.31
21
-102.511
0
LINE
8
BLACK
6
CONTINUOUS
10
148.31
20
-102.511
11
148.31
21
-102.511
0
LINE
8
BLACK
6
CONTINUOUS
10
148.31
20
-102.511
11
148.31
21
-102.513
0
LINE
8
BLACK
6
CONTINUOUS
10
148.31
20
-102.513
11
148.311
21
-102.514
0
LINE
8
BLACK
6
CONTINUOUS
10
148.311
20
-102.514
11
148.311
21
-102.514
0
LINE
8
BLACK
6
CONTINUOUS
10
148.311
20
-102.514
11
148.311
21
-102.515
0
LINE
8
BLACK
6
CONTINUOUS
10
148.311
20
-102.515
11
148.312
21
-102.632
0
LINE
8
BLACK
6
CONTINUOUS
10
148.312
20
-102.632
11
148.312
21
-102.749
0
LINE
8
BLACK
6
CONTINUOUS
10
148.312
20
-102.749
11
148.312
21
-102.751
0
LINE
8
BLACK
6
CONTINUOUS
10
148.312
20
-102.751
11
148.311
21
-102.753
0
LINE
8
BLACK
6
CONTINUOUS
10
148.311
20
-102.753
11
147.513
21
-103.592
0
LINE
8
BLACK
6
CONTINUOUS
10
147.513
20
-103.592
11
147.513
21
-103.592
0
LINE
8
BLACK
6
CONTINUOUS
10
147.513
20
-103.592
11
146.716
21
-104.43
0
LINE
8
BLACK
6
CONTINUOUS
10
146.716
20
-104.43
11
146.7
21
-104.62
0
LINE
8
BLACK
6
CONTINUOUS
10
146.7
20
-104.62
11
146.636
21
-105.385
0
LINE
8
BLACK
6
CONTINUOUS
10
146.636
20
-105.385
11
146.625
21
-105.521
0
LINE
8
BLACK
6
CONTINUOUS
10
146.625
20
-105.521
11
146.611
21
-105.691
0
LINE
8
BLACK
6
CONTINUOUS
10
146.611
20
-105.691
11
146.598
21
-105.849
0
LINE
8
BLACK
6
CONTINUOUS
10
146.598
20
-105.849
11
146.598
21
-105.849
0
LINE
8
BLACK
6
CONTINUOUS
10
146.598
20
-105.849
11
146.587
21
-105.993
0
LINE
8
BLACK
6
CONTINUOUS
10
146.587
20
-105.993
11
146.577
21
-106.119
0
LINE
8
BLACK
6
CONTINUOUS
10
146.577
20
-106.119
11
146.577
21
-106.119
0
LINE
8
BLACK
6
CONTINUOUS
10
146.577
20
-106.119
11
146.568
21
-106.224
0
LINE
8
BLACK
6
CONTINUOUS
10
146.568
20
-106.224
11
146.568
21
-106.224
0
LINE
8
BLACK
6
CONTINUOUS
10
146.568
20
-106.224
11
146.562
21
-106.305
0
LINE
8
BLACK
6
CONTINUOUS
10
146.562
20
-106.305
11
146.562
21
-106.305
0
LINE
8
BLACK
6
CONTINUOUS
10
146.562
20
-106.305
11
146.558
21
-106.359
0
LINE
8
BLACK
6
CONTINUOUS
10
146.558
20
-106.359
11
146.557
21
-106.382
0
LINE
8
BLACK
6
CONTINUOUS
10
146.557
20
-106.382
11
146.56
21
-106.391
0
LINE
8
BLACK
6
CONTINUOUS
10
146.56
20
-106.391
11
146.575
21
-106.414
0
LINE
8
BLACK
6
CONTINUOUS
10
146.575
20
-106.414
11
146.603
21
-106.45
0
LINE
8
BLACK
6
CONTINUOUS
10
146.603
20
-106.45
11
146.616
21
-106.465
0
LINE
8
BLACK
6
CONTINUOUS
10
146.616
20
-106.465
11
146.616
21
-106.465
0
LINE
8
BLACK
6
CONTINUOUS
10
146.616
20
-106.465
11
146.646
21
-106.499
0
LINE
8
BLACK
6
CONTINUOUS
10
146.646
20
-106.499
11
146.705
21
-106.563
0
LINE
8
BLACK
6
CONTINUOUS
10
146.705
20
-106.563
11
146.782
21
-106.644
0
LINE
8
BLACK
6
CONTINUOUS
10
146.782
20
-106.644
11
146.879
21
-106.744
0
LINE
8
BLACK
6
CONTINUOUS
10
146.879
20
-106.744
11
146.997
21
-106.864
0
LINE
8
BLACK
6
CONTINUOUS
10
146.997
20
-106.864
11
147.137
21
-107.006
0
LINE
8
BLACK
6
CONTINUOUS
10
147.137
20
-107.006
11
147.229
21
-107.099
0
LINE
8
BLACK
6
CONTINUOUS
10
147.229
20
-107.099
11
147.358
21
-107.228
0
LINE
8
BLACK
6
CONTINUOUS
10
147.358
20
-107.228
11
147.358
21
-107.228
0
LINE
8
BLACK
6
CONTINUOUS
10
147.358
20
-107.228
11
147.358
21
-107.228
0
LINE
8
BLACK
6
CONTINUOUS
10
147.358
20
-107.228
11
147.486
21
-107.358
0
LINE
8
BLACK
6
CONTINUOUS
10
147.486
20
-107.358
11
147.486
21
-107.358
0
LINE
8
BLACK
6
CONTINUOUS
10
147.486
20
-107.358
11
147.609
21
-107.483
0
LINE
8
BLACK
6
CONTINUOUS
10
147.609
20
-107.483
11
147.609
21
-107.483
0
LINE
8
BLACK
6
CONTINUOUS
10
147.609
20
-107.483
11
147.609
21
-107.483
0
LINE
8
BLACK
6
CONTINUOUS
10
147.609
20
-107.483
11
147.725
21
-107.599
0
LINE
8
BLACK
6
CONTINUOUS
10
147.725
20
-107.599
11
147.725
21
-107.599
0
LINE
8
BLACK
6
CONTINUOUS
10
147.725
20
-107.599
11
147.829
21
-107.704
0
LINE
8
BLACK
6
CONTINUOUS
10
147.829
20
-107.704
11
147.829
21
-107.704
0
LINE
8
BLACK
6
CONTINUOUS
10
147.829
20
-107.704
11
147.829
21
-107.704
0
LINE
8
BLACK
6
CONTINUOUS
10
147.829
20
-107.704
11
147.916
21
-107.793
0
LINE
8
BLACK
6
CONTINUOUS
10
147.916
20
-107.793
11
147.916
21
-107.793
0
LINE
8
BLACK
6
CONTINUOUS
10
147.916
20
-107.793
11
147.916
21
-107.793
0
LINE
8
BLACK
6
CONTINUOUS
10
147.916
20
-107.793
11
147.984
21
-107.862
0
LINE
8
BLACK
6
CONTINUOUS
10
147.984
20
-107.862
11
147.984
21
-107.862
0
LINE
8
BLACK
6
CONTINUOUS
10
147.984
20
-107.862
11
147.984
21
-107.862
0
LINE
8
BLACK
6
CONTINUOUS
10
147.984
20
-107.862
11
148.251
21
-108.133
0
LINE
8
BLACK
6
CONTINUOUS
10
148.251
20
-108.133
11
148.252
21
-108.135
0
LINE
8
BLACK
6
CONTINUOUS
10
148.252
20
-108.135
11
148.253
21
-108.137
0
LINE
8
BLACK
6
CONTINUOUS
10
148.253
20
-108.137
11
148.253
21
-108.137
0
LINE
8
BLACK
6
CONTINUOUS
10
148.253
20
-108.137
11
148.253
21
-108.137
0
LINE
8
BLACK
6
CONTINUOUS
10
148.253
20
-108.137
11
148.252
21
-108.138
0
LINE
8
BLACK
6
CONTINUOUS
10
148.252
20
-108.138
11
148.251
21
-108.14
0
LINE
8
BLACK
6
CONTINUOUS
10
148.251
20
-108.14
11
148.203
21
-108.191
0
LINE
8
BLACK
6
CONTINUOUS
10
148.203
20
-108.191
11
148.203
21
-108.191
0
LINE
8
BLACK
6
CONTINUOUS
10
148.203
20
-108.191
11
148.203
21
-108.191
0
LINE
8
BLACK
6
CONTINUOUS
10
148.203
20
-108.191
11
148.191
21
-108.202
0
LINE
8
BLACK
6
CONTINUOUS
10
148.191
20
-108.202
11
148.191
21
-108.202
0
LINE
8
BLACK
6
CONTINUOUS
10
148.191
20
-108.202
11
148.191
21
-108.203
0
LINE
8
BLACK
6
CONTINUOUS
10
148.191
20
-108.203
11
148.157
21
-108.231
0
LINE
8
BLACK
6
CONTINUOUS
10
148.157
20
-108.231
11
148.157
21
-108.231
0
LINE
8
BLACK
6
CONTINUOUS
10
148.157
20
-108.231
11
148.156
21
-108.231
0
LINE
8
BLACK
6
CONTINUOUS
10
148.156
20
-108.231
11
148.133
21
-108.242
0
LINE
8
BLACK
6
CONTINUOUS
10
148.133
20
-108.242
11
148.133
21
-108.242
0
LINE
8
BLACK
6
CONTINUOUS
10
148.133
20
-108.242
11
148.132
21
-108.243
0
LINE
8
BLACK
6
CONTINUOUS
10
148.132
20
-108.243
11
148.131
21
-108.243
0
LINE
8
BLACK
6
CONTINUOUS
10
148.131
20
-108.243
11
148.129
21
-108.243
0
LINE
8
BLACK
6
CONTINUOUS
10
148.129
20
-108.243
11
148.129
21
-108.242
0
LINE
8
BLACK
6
CONTINUOUS
10
148.129
20
-108.242
11
148.129
21
-108.242
0
LINE
8
BLACK
6
CONTINUOUS
10
148.129
20
-108.242
11
148.11
21
-108.233
0
LINE
8
BLACK
6
CONTINUOUS
10
148.11
20
-108.233
11
148.11
21
-108.232
0
LINE
8
BLACK
6
CONTINUOUS
10
148.11
20
-108.232
11
148.11
21
-108.232
0
LINE
8
BLACK
6
CONTINUOUS
10
148.11
20
-108.232
11
148.076
21
-108.203
0
LINE
8
BLACK
6
CONTINUOUS
10
148.076
20
-108.203
11
148.076
21
-108.203
0
LINE
8
BLACK
6
CONTINUOUS
10
148.076
20
-108.203
11
148.076
21
-108.203
0
LINE
8
BLACK
6
CONTINUOUS
10
148.076
20
-108.203
11
148.035
21
-108.162
0
LINE
8
BLACK
6
CONTINUOUS
10
148.035
20
-108.162
11
148.035
21
-108.162
0
LINE
8
BLACK
6
CONTINUOUS
10
148.035
20
-108.162
11
148.035
21
-108.162
0
LINE
8
BLACK
6
CONTINUOUS
10
148.035
20
-108.162
11
148.011
21
-108.136
0
LINE
8
BLACK
6
CONTINUOUS
10
148.011
20
-108.136
11
147.965
21
-108.089
0
LINE
8
BLACK
6
CONTINUOUS
10
147.965
20
-108.089
11
147.9
21
-108.022
0
LINE
8
BLACK
6
CONTINUOUS
10
147.9
20
-108.022
11
147.9
21
-108.022
0
LINE
8
BLACK
6
CONTINUOUS
10
147.9
20
-108.022
11
147.819
21
-107.939
0
LINE
8
BLACK
6
CONTINUOUS
10
147.819
20
-107.939
11
147.819
21
-107.939
0
LINE
8
BLACK
6
CONTINUOUS
10
147.819
20
-107.939
11
147.723
21
-107.841
0
LINE
8
BLACK
6
CONTINUOUS
10
147.723
20
-107.841
11
147.723
21
-107.841
0
LINE
8
BLACK
6
CONTINUOUS
10
147.723
20
-107.841
11
147.615
21
-107.731
0
LINE
8
BLACK
6
CONTINUOUS
10
147.615
20
-107.731
11
147.615
21
-107.731
0
LINE
8
BLACK
6
CONTINUOUS
10
147.615
20
-107.731
11
147.498
21
-107.612
0
LINE
8
BLACK
6
CONTINUOUS
10
147.498
20
-107.612
11
147.498
21
-107.612
0
LINE
8
BLACK
6
CONTINUOUS
10
147.498
20
-107.612
11
147.372
21
-107.485
0
LINE
8
BLACK
6
CONTINUOUS
10
147.372
20
-107.485
11
147.372
21
-107.485
0
LINE
8
BLACK
6
CONTINUOUS
10
147.372
20
-107.485
11
147.242
21
-107.352
0
LINE
8
BLACK
6
CONTINUOUS
10
147.242
20
-107.352
11
147.242
21
-107.352
0
LINE
8
BLACK
6
CONTINUOUS
10
147.242
20
-107.352
11
146.529
21
-106.63
0
LINE
8
BLACK
6
CONTINUOUS
10
146.529
20
-106.63
11
146.5
21
-106.998
0
LINE
8
BLACK
6
CONTINUOUS
10
146.5
20
-106.998
11
146.5
21
-106.998
0
LINE
8
BLACK
6
CONTINUOUS
10
146.5
20
-106.998
11
146.5
21
-106.998
0
LINE
8
BLACK
6
CONTINUOUS
10
146.5
20
-106.998
11
146.494
21
-107.079
0
LINE
8
BLACK
6
CONTINUOUS
10
146.494
20
-107.079
11
146.494
21
-107.079
0
LINE
8
BLACK
6
CONTINUOUS
10
146.494
20
-107.079
11
146.494
21
-107.079
0
LINE
8
BLACK
6
CONTINUOUS
10
146.494
20
-107.079
11
146.485
21
-107.188
0
LINE
8
BLACK
6
CONTINUOUS
10
146.485
20
-107.188
11
146.485
21
-107.188
0
LINE
8
BLACK
6
CONTINUOUS
10
146.485
20
-107.188
11
146.485
21
-107.188
0
LINE
8
BLACK
6
CONTINUOUS
10
146.485
20
-107.188
11
146.476
21
-107.271
0
LINE
8
BLACK
6
CONTINUOUS
10
146.476
20
-107.271
11
146.476
21
-107.271
0
LINE
8
BLACK
6
CONTINUOUS
10
146.476
20
-107.271
11
146.476
21
-107.271
0
LINE
8
BLACK
6
CONTINUOUS
10
146.476
20
-107.271
11
146.468
21
-107.331
0
LINE
8
BLACK
6
CONTINUOUS
10
146.468
20
-107.331
11
146.468
21
-107.331
0
LINE
8
BLACK
6
CONTINUOUS
10
146.468
20
-107.331
11
146.468
21
-107.332
0
LINE
8
BLACK
6
CONTINUOUS
10
146.468
20
-107.332
11
146.46
21
-107.374
0
LINE
8
BLACK
6
CONTINUOUS
10
146.46
20
-107.374
11
146.459
21
-107.374
0
LINE
8
BLACK
6
CONTINUOUS
10
146.459
20
-107.374
11
146.459
21
-107.375
0
LINE
8
BLACK
6
CONTINUOUS
10
146.459
20
-107.375
11
146.45
21
-107.404
0
LINE
8
BLACK
6
CONTINUOUS
10
146.45
20
-107.404
11
146.45
21
-107.404
0
LINE
8
BLACK
6
CONTINUOUS
10
146.45
20
-107.404
11
146.45
21
-107.405
0
LINE
8
BLACK
6
CONTINUOUS
10
146.45
20
-107.405
11
146.439
21
-107.425
0
LINE
8
BLACK
6
CONTINUOUS
10
146.439
20
-107.425
11
146.439
21
-107.425
0
LINE
8
BLACK
6
CONTINUOUS
10
146.439
20
-107.425
11
146.439
21
-107.425
0
LINE
8
BLACK
6
CONTINUOUS
10
146.439
20
-107.425
11
146.424
21
-107.453
0
LINE
8
BLACK
6
CONTINUOUS
10
146.424
20
-107.453
11
146.411
21
-107.503
0
LINE
8
BLACK
6
CONTINUOUS
10
146.411
20
-107.503
11
146.407
21
-107.577
0
LINE
8
BLACK
6
CONTINUOUS
10
146.407
20
-107.577
11
146.407
21
-107.686
0
LINE
8
BLACK
6
CONTINUOUS
10
146.407
20
-107.686
11
146.406
21
-107.69
0
LINE
8
BLACK
6
CONTINUOUS
10
146.406
20
-107.69
11
146.402
21
-107.691
0
LINE
8
BLACK
6
CONTINUOUS
10
146.402
20
-107.691
11
146.102
21
-107.691
0
LINE
8
BLACK
6
CONTINUOUS
10
146.102
20
-107.691
11
146.098
21
-107.69
0
LINE
8
BLACK
6
CONTINUOUS
10
146.098
20
-107.69
11
146.097
21
-107.686
0
LINE
8
BLACK
6
CONTINUOUS
10
146.097
20
-107.686
11
146.097
21
-107.457
0
LINE
8
BLACK
6
CONTINUOUS
10
146.097
20
-107.457
11
144.98
21
-107.457
0
LINE
8
BLACK
6
CONTINUOUS
10
144.98
20
-107.457
11
144.917
21
-107.53
0
LINE
8
BLACK
6
CONTINUOUS
10
144.917
20
-107.53
11
144.917
21
-107.53
0
LINE
8
BLACK
6
CONTINUOUS
10
144.917
20
-107.53
11
144.917
21
-107.53
0
LINE
8
BLACK
6
CONTINUOUS
10
144.917
20
-107.53
11
144.899
21
-107.549
0
LINE
8
BLACK
6
CONTINUOUS
10
144.899
20
-107.549
11
144.898
21
-107.549
0
LINE
8
BLACK
6
CONTINUOUS
10
144.898
20
-107.549
11
144.898
21
-107.549
0
LINE
8
BLACK
6
CONTINUOUS
10
144.898
20
-107.549
11
144.802
21
-107.627
0
LINE
8
BLACK
6
CONTINUOUS
10
144.802
20
-107.627
11
144.801
21
-107.627
0
LINE
8
BLACK
6
CONTINUOUS
10
144.801
20
-107.627
11
144.801
21
-107.627
0
LINE
8
BLACK
6
CONTINUOUS
10
144.801
20
-107.627
11
144.692
21
-107.675
0
LINE
8
BLACK
6
CONTINUOUS
10
144.692
20
-107.675
11
144.691
21
-107.675
0
LINE
8
BLACK
6
CONTINUOUS
10
144.691
20
-107.675
11
144.691
21
-107.675
0
LINE
8
BLACK
6
CONTINUOUS
10
144.691
20
-107.675
11
144.573
21
-107.691
0
LINE
8
BLACK
6
CONTINUOUS
10
144.573
20
-107.691
11
144.572
21
-107.691
0
LINE
8
BLACK
6
CONTINUOUS
10
144.572
20
-107.691
11
144.572
21
-107.691
0
LINE
8
BLACK
6
CONTINUOUS
10
144.572
20
-107.691
11
144.468
21
-107.683
0
LINE
8
BLACK
6
CONTINUOUS
10
144.468
20
-107.683
11
144.467
21
-107.683
0
LINE
8
BLACK
6
CONTINUOUS
10
144.467
20
-107.683
11
144.467
21
-107.683
0
LINE
8
BLACK
6
CONTINUOUS
10
144.467
20
-107.683
11
144.349
21
-107.646
0
LINE
8
BLACK
6
CONTINUOUS
10
144.349
20
-107.646
11
144.349
21
-107.646
0
LINE
8
BLACK
6
CONTINUOUS
10
144.349
20
-107.646
11
144.348
21
-107.646
0
LINE
8
BLACK
6
CONTINUOUS
10
144.348
20
-107.646
11
144.247
21
-107.581
0
LINE
8
BLACK
6
CONTINUOUS
10
144.247
20
-107.581
11
144.247
21
-107.581
0
LINE
8
BLACK
6
CONTINUOUS
10
144.247
20
-107.581
11
144.247
21
-107.581
0
LINE
8
BLACK
6
CONTINUOUS
10
144.247
20
-107.581
11
144.227
21
-107.562
0
LINE
8
BLACK
6
CONTINUOUS
10
144.227
20
-107.562
11
144.227
21
-107.562
0
LINE
8
BLACK
6
CONTINUOUS
10
144.227
20
-107.562
11
144.227
21
-107.562
0
LINE
8
BLACK
6
CONTINUOUS
10
144.227
20
-107.562
11
144.178
21
-107.502
0
LINE
8
BLACK
6
CONTINUOUS
10
144.178
20
-107.502
11
144.178
21
-107.501
0
LINE
8
BLACK
6
CONTINUOUS
10
144.178
20
-107.501
11
144.177
21
-107.501
0
LINE
8
BLACK
6
CONTINUOUS
10
144.177
20
-107.501
11
144.134
21
-107.431
0
LINE
8
BLACK
6
CONTINUOUS
10
144.134
20
-107.431
11
144.134
21
-107.431
0
LINE
8
BLACK
6
CONTINUOUS
10
144.134
20
-107.431
11
144.134
21
-107.431
0
LINE
8
BLACK
6
CONTINUOUS
10
144.134
20
-107.431
11
144.103
21
-107.362
0
LINE
8
BLACK
6
CONTINUOUS
10
144.103
20
-107.362
11
144.103
21
-107.361
0
LINE
8
BLACK
6
CONTINUOUS
10
144.103
20
-107.361
11
144.103
21
-107.361
0
LINE
8
BLACK
6
CONTINUOUS
10
144.103
20
-107.361
11
144.09
21
-107.304
0
LINE
8
BLACK
6
CONTINUOUS
10
144.09
20
-107.304
11
144.09
21
-107.304
0
LINE
8
BLACK
6
CONTINUOUS
10
144.09
20
-107.304
11
144.09
21
-107.303
0
LINE
8
BLACK
6
CONTINUOUS
10
144.09
20
-107.303
11
144.09
21
-107.295
0
LINE
8
BLACK
6
CONTINUOUS
10
144.09
20
-107.295
11
144.088
21
-107.265
0
LINE
8
BLACK
6
CONTINUOUS
10
144.088
20
-107.265
11
144.084
21
-107.246
0
LINE
8
BLACK
6
CONTINUOUS
10
144.084
20
-107.246
11
144.077
21
-107.239
0
LINE
8
BLACK
6
CONTINUOUS
10
144.077
20
-107.239
11
144.063
21
-107.241
0
LINE
8
BLACK
6
CONTINUOUS
10
144.063
20
-107.241
11
144.037
21
-107.258
0
LINE
8
BLACK
6
CONTINUOUS
10
144.037
20
-107.258
11
143.999
21
-107.29
0
LINE
8
BLACK
6
CONTINUOUS
10
143.999
20
-107.29
11
143.947
21
-107.341
0
LINE
8
BLACK
6
CONTINUOUS
10
143.947
20
-107.341
11
143.878
21
-107.411
0
LINE
8
BLACK
6
CONTINUOUS
10
143.878
20
-107.411
11
143.878
21
-107.411
0
LINE
8
BLACK
6
CONTINUOUS
10
143.878
20
-107.411
11
143.79
21
-107.502
0
LINE
8
BLACK
6
CONTINUOUS
10
143.79
20
-107.502
11
143.79
21
-107.502
0
LINE
8
BLACK
6
CONTINUOUS
10
143.79
20
-107.502
11
143.682
21
-107.615
0
LINE
8
BLACK
6
CONTINUOUS
10
143.682
20
-107.615
11
143.682
21
-107.615
0
LINE
8
BLACK
6
CONTINUOUS
10
143.682
20
-107.615
11
143.624
21
-107.676
0
LINE
8
BLACK
6
CONTINUOUS
10
143.624
20
-107.676
11
143.624
21
-107.676
0
LINE
8
BLACK
6
CONTINUOUS
10
143.624
20
-107.676
11
143.527
21
-107.777
0
LINE
8
BLACK
6
CONTINUOUS
10
143.527
20
-107.777
11
143.527
21
-107.777
0
LINE
8
BLACK
6
CONTINUOUS
10
143.527
20
-107.777
11
143.436
21
-107.873
0
LINE
8
BLACK
6
CONTINUOUS
10
143.436
20
-107.873
11
143.436
21
-107.873
0
LINE
8
BLACK
6
CONTINUOUS
10
143.436
20
-107.873
11
143.354
21
-107.96
0
LINE
8
BLACK
6
CONTINUOUS
10
143.354
20
-107.96
11
143.354
21
-107.96
0
LINE
8
BLACK
6
CONTINUOUS
10
143.354
20
-107.96
11
143.284
21
-108.035
0
LINE
8
BLACK
6
CONTINUOUS
10
143.284
20
-108.035
11
143.284
21
-108.035
0
LINE
8
BLACK
6
CONTINUOUS
10
143.284
20
-108.035
11
143.229
21
-108.092
0
LINE
8
BLACK
6
CONTINUOUS
10
143.229
20
-108.092
11
143.229
21
-108.092
0
LINE
8
BLACK
6
CONTINUOUS
10
143.229
20
-108.092
11
143.195
21
-108.13
0
LINE
8
BLACK
6
CONTINUOUS
10
143.195
20
-108.13
11
143.195
21
-108.13
0
LINE
8
BLACK
6
CONTINUOUS
10
143.195
20
-108.13
11
143.1
21
-108.233
0
LINE
8
BLACK
6
CONTINUOUS
10
143.1
20
-108.233
11
143.1
21
-108.233
0
LINE
8
BLACK
6
CONTINUOUS
10
143.1
20
-108.233
11
143.1
21
-108.233
0
LINE
8
BLACK
6
CONTINUOUS
10
143.1
20
-108.233
11
143.098
21
-108.234
0
LINE
8
BLACK
6
CONTINUOUS
10
143.098
20
-108.234
11
143.096
21
-108.235
0
LINE
8
BLACK
6
CONTINUOUS
10
143.096
20
-108.235
11
143.096
21
-108.234
0
LINE
8
BLACK
6
CONTINUOUS
10
143.096
20
-108.234
11
143.096
21
-108.235
0
LINE
8
BLACK
6
CONTINUOUS
10
143.096
20
-108.235
11
143.094
21
-108.234
0
LINE
8
BLACK
6
CONTINUOUS
10
143.094
20
-108.234
11
143.093
21
-108.233
0
LINE
8
BLACK
6
CONTINUOUS
10
143.093
20
-108.233
11
143.093
21
-108.233
0
LINE
8
BLACK
6
CONTINUOUS
10
143.093
20
-108.233
11
143.093
21
-108.233
0
LINE
8
BLACK
6
CONTINUOUS
10
143.093
20
-108.233
11
143.034
21
-108.175
0
LINE
8
BLACK
6
CONTINUOUS
10
143.034
20
-108.175
11
142.975
21
-108.116
0
LINE
8
BLACK
6
CONTINUOUS
10
142.975
20
-108.116
11
142.975
21
-108.114
0
LINE
8
BLACK
6
CONTINUOUS
10
142.975
20
-108.114
11
142.974
21
-108.113
0
LINE
8
BLACK
6
CONTINUOUS
10
142.974
20
-108.113
11
142.974
21
-108.113
0
LINE
8
BLACK
6
CONTINUOUS
10
142.974
20
-108.113
11
142.974
21
-108.113
0
LINE
8
BLACK
6
CONTINUOUS
10
142.974
20
-108.113
11
142.975
21
-108.111
0
LINE
8
BLACK
6
CONTINUOUS
10
142.975
20
-108.111
11
142.975
21
-108.109
0
LINE
8
BLACK
6
CONTINUOUS
10
142.975
20
-108.109
11
143.701
21
-107.349
0
LINE
8
BLACK
6
CONTINUOUS
10
143.701
20
-107.349
11
143.746
21
-107.301
0
LINE
8
BLACK
6
CONTINUOUS
10
143.746
20
-107.301
11
143.746
21
-107.301
0
LINE
8
BLACK
6
CONTINUOUS
10
143.746
20
-107.301
11
143.909
21
-107.129
0
LINE
8
BLACK
6
CONTINUOUS
10
143.909
20
-107.129
11
143.909
21
-107.129
0
LINE
8
BLACK
6
CONTINUOUS
10
143.909
20
-107.129
11
144.049
21
-106.981
0
LINE
8
BLACK
6
CONTINUOUS
10
144.049
20
-106.981
11
144.166
21
-106.856
0
LINE
8
BLACK
6
CONTINUOUS
10
144.166
20
-106.856
11
144.166
21
-106.856
0
LINE
8
BLACK
6
CONTINUOUS
10
144.166
20
-106.856
11
144.261
21
-106.753
0
LINE
8
BLACK
6
CONTINUOUS
10
144.261
20
-106.753
11
144.334
21
-106.671
0
LINE
8
BLACK
6
CONTINUOUS
10
144.334
20
-106.671
11
144.385
21
-106.611
0
LINE
8
BLACK
6
CONTINUOUS
10
144.385
20
-106.611
11
144.416
21
-106.572
0
LINE
8
BLACK
6
CONTINUOUS
10
144.416
20
-106.572
11
144.425
21
-106.554
0
LINE
8
BLACK
6
CONTINUOUS
10
144.425
20
-106.554
11
144.424
21
-106.532
0
LINE
8
BLACK
6
CONTINUOUS
10
144.424
20
-106.532
11
144.42
21
-106.478
0
LINE
8
BLACK
6
CONTINUOUS
10
144.42
20
-106.478
11
144.42
21
-106.478
0
LINE
8
BLACK
6
CONTINUOUS
10
144.42
20
-106.478
11
144.413
21
-106.399
0
LINE
8
BLACK
6
CONTINUOUS
10
144.413
20
-106.399
11
144.413
21
-106.399
0
LINE
8
BLACK
6
CONTINUOUS
10
144.413
20
-106.399
11
144.405
21
-106.297
0
LINE
8
BLACK
6
CONTINUOUS
10
144.405
20
-106.297
11
144.405
21
-106.297
0
LINE
8
BLACK
6
CONTINUOUS
10
144.405
20
-106.297
11
144.394
21
-106.177
0
LINE
8
BLACK
6
CONTINUOUS
10
144.394
20
-106.177
11
144.383
21
-106.041
0
LINE
8
BLACK
6
CONTINUOUS
10
144.383
20
-106.041
11
144.37
21
-105.895
0
LINE
8
BLACK
6
CONTINUOUS
10
144.37
20
-105.895
11
144.356
21
-105.74
0
LINE
8
BLACK
6
CONTINUOUS
10
144.356
20
-105.74
11
144.342
21
-105.581
0
LINE
8
BLACK
6
CONTINUOUS
10
144.342
20
-105.581
11
144.342
21
-105.581
0
LINE
8
BLACK
6
CONTINUOUS
10
144.342
20
-105.581
11
144.328
21
-105.422
0
LINE
8
BLACK
6
CONTINUOUS
10
144.328
20
-105.422
11
144.314
21
-105.266
0
LINE
8
BLACK
6
CONTINUOUS
10
144.314
20
-105.266
11
144.301
21
-105.117
0
LINE
8
BLACK
6
CONTINUOUS
10
144.301
20
-105.117
11
144.288
21
-104.978
0
LINE
8
BLACK
6
CONTINUOUS
10
144.288
20
-104.978
11
144.288
21
-104.978
0
LINE
8
BLACK
6
CONTINUOUS
10
144.288
20
-104.978
11
144.277
21
-104.853
0
LINE
8
BLACK
6
CONTINUOUS
10
144.277
20
-104.853
11
144.277
21
-104.853
0
LINE
8
BLACK
6
CONTINUOUS
10
144.277
20
-104.853
11
144.267
21
-104.745
0
LINE
8
BLACK
6
CONTINUOUS
10
144.267
20
-104.745
11
144.267
21
-104.745
0
LINE
8
BLACK
6
CONTINUOUS
10
144.267
20
-104.745
11
144.259
21
-104.66
0
LINE
8
BLACK
6
CONTINUOUS
10
144.259
20
-104.66
11
144.259
21
-104.66
0
LINE
8
BLACK
6
CONTINUOUS
10
144.259
20
-104.66
11
144.253
21
-104.599
0
LINE
8
BLACK
6
CONTINUOUS
10
144.253
20
-104.599
11
144.249
21
-104.566
0
LINE
8
BLACK
6
CONTINUOUS
10
144.249
20
-104.566
11
144.24
21
-104.5
0
LINE
8
BLACK
6
CONTINUOUS
10
144.24
20
-104.5
11
143.879
21
-104.5
0
LINE
8
BLACK
6
CONTINUOUS
10
143.879
20
-104.5
11
143.879
21
-104.5
0
LINE
8
BLACK
6
CONTINUOUS
10
143.879
20
-104.5
11
143.877
21
-104.499
0
LINE
8
BLACK
6
CONTINUOUS
10
143.877
20
-104.499
11
143.876
21
-104.498
0
LINE
8
BLACK
6
CONTINUOUS
10
143.876
20
-104.498
11
143.876
21
-104.498
0
LINE
8
BLACK
6
CONTINUOUS
10
143.876
20
-104.498
11
143.876
21
-104.498
0
LINE
8
BLACK
6
CONTINUOUS
10
143.876
20
-104.498
11
143.875
21
-104.496
0
LINE
8
BLACK
6
CONTINUOUS
10
143.875
20
-104.496
11
143.874
21
-104.495
0
LINE
8
BLACK
6
CONTINUOUS
10
143.874
20
-104.495
11
143.874
21
-104.215
0
LINE
8
BLACK
6
CONTINUOUS
10
143.874
20
-104.215
11
143.874
21
-104.215
0
LINE
8
BLACK
6
CONTINUOUS
10
143.874
20
-104.215
11
143.873
21
-103.937
0
LINE
8
BLACK
6
CONTINUOUS
10
143.873
20
-103.937
11
143.274
21
-103.329
0
LINE
8
BLACK
6
CONTINUOUS
10
143.274
20
-103.329
11
142.674
21
-102.719
0
LINE
8
BLACK
6
CONTINUOUS
10
142.674
20
-102.719
11
142.673
21
-102.717
0
LINE
8
BLACK
6
CONTINUOUS
10
142.673
20
-102.717
11
142.673
21
-102.715
0
LINE
8
BLACK
6
CONTINUOUS
10
142.673
20
-102.715
11
142.672
21
-102.599
0
LINE
8
BLACK
6
CONTINUOUS
10
142.672
20
-102.599
11
142.671
21
-102.484
0
LINE
8
BLACK
6
CONTINUOUS
10
142.671
20
-102.484
11
142.671
21
-102.484
0
LINE
8
BLACK
6
CONTINUOUS
10
142.671
20
-102.484
11
142.671
21
-102.484
0
LINE
8
BLACK
6
CONTINUOUS
10
142.671
20
-102.484
11
142.672
21
-102.482
0
LINE
8
BLACK
6
CONTINUOUS
10
142.672
20
-102.482
11
142.672
21
-102.48
0
LINE
8
BLACK
6
CONTINUOUS
10
142.672
20
-102.48
11
142.672
21
-102.48
0
LINE
8
BLACK
6
CONTINUOUS
10
142.672
20
-102.48
11
142.672
21
-102.48
0
LINE
8
BLACK
6
CONTINUOUS
10
142.672
20
-102.48
11
142.674
21
-102.479
0
LINE
8
BLACK
6
CONTINUOUS
10
142.674
20
-102.479
11
142.676
21
-102.479
0
LINE
8
BLACK
6
CONTINUOUS
10
142.676
20
-102.479
11
142.676
21
-102.479
0
LINE
8
BLACK
6
CONTINUOUS
10
142.676
20
-102.479
11
142.676
21
-102.479
0
LINE
8
BLACK
6
CONTINUOUS
10
142.676
20
-102.479
11
142.678
21
-102.479
0
LINE
8
BLACK
6
CONTINUOUS
10
145.551
20
-105.663
11
145.521
21
-105.689
0
LINE
8
BLACK
6
CONTINUOUS
10
145.521
20
-105.689
11
145.475
21
-105.733
0
LINE
8
BLACK
6
CONTINUOUS
10
145.475
20
-105.733
11
145.418
21
-105.791
0
LINE
8
BLACK
6
CONTINUOUS
10
145.418
20
-105.791
11
145.353
21
-105.858
0
LINE
8
BLACK
6
CONTINUOUS
10
145.353
20
-105.858
11
145.353
21
-105.858
0
LINE
8
BLACK
6
CONTINUOUS
10
145.353
20
-105.858
11
145.336
21
-105.876
0
LINE
8
BLACK
6
CONTINUOUS
10
145.336
20
-105.876
11
145.336
21
-105.876
0
LINE
8
BLACK
6
CONTINUOUS
10
145.336
20
-105.876
11
145.336
21
-105.876
0
LINE
8
BLACK
6
CONTINUOUS
10
145.336
20
-105.876
11
145.261
21
-105.956
0
LINE
8
BLACK
6
CONTINUOUS
10
145.261
20
-105.956
11
145.261
21
-105.956
0
LINE
8
BLACK
6
CONTINUOUS
10
145.261
20
-105.956
11
145.261
21
-105.956
0
LINE
8
BLACK
6
CONTINUOUS
10
145.261
20
-105.956
11
145.171
21
-106.051
0
LINE
8
BLACK
6
CONTINUOUS
10
145.171
20
-106.051
11
145.171
21
-106.051
0
LINE
8
BLACK
6
CONTINUOUS
10
145.171
20
-106.051
11
145.171
21
-106.051
0
LINE
8
BLACK
6
CONTINUOUS
10
145.171
20
-106.051
11
145.073
21
-106.155
0
LINE
8
BLACK
6
CONTINUOUS
10
145.073
20
-106.155
11
145.073
21
-106.155
0
LINE
8
BLACK
6
CONTINUOUS
10
145.073
20
-106.155
11
145.073
21
-106.155
0
LINE
8
BLACK
6
CONTINUOUS
10
145.073
20
-106.155
11
144.974
21
-106.258
0
LINE
8
BLACK
6
CONTINUOUS
10
144.974
20
-106.258
11
144.974
21
-106.258
0
LINE
8
BLACK
6
CONTINUOUS
10
144.974
20
-106.258
11
144.974
21
-106.258
0
LINE
8
BLACK
6
CONTINUOUS
10
144.974
20
-106.258
11
144.881
21
-106.356
0
LINE
8
BLACK
6
CONTINUOUS
10
144.881
20
-106.356
11
144.881
21
-106.356
0
LINE
8
BLACK
6
CONTINUOUS
10
144.881
20
-106.356
11
144.881
21
-106.356
0
LINE
8
BLACK
6
CONTINUOUS
10
144.881
20
-106.356
11
144.876
21
-106.362
0
LINE
8
BLACK
6
CONTINUOUS
10
144.876
20
-106.362
11
144.876
21
-106.362
0
LINE
8
BLACK
6
CONTINUOUS
10
144.876
20
-106.362
11
144.789
21
-106.453
0
LINE
8
BLACK
6
CONTINUOUS
10
144.789
20
-106.453
11
144.789
21
-106.453
0
LINE
8
BLACK
6
CONTINUOUS
10
144.789
20
-106.453
11
144.723
21
-106.523
0
LINE
8
BLACK
6
CONTINUOUS
10
144.723
20
-106.523
11
144.675
21
-106.576
0
LINE
8
BLACK
6
CONTINUOUS
10
144.675
20
-106.576
11
144.643
21
-106.615
0
LINE
8
BLACK
6
CONTINUOUS
10
144.643
20
-106.615
11
144.623
21
-106.644
0
LINE
8
BLACK
6
CONTINUOUS
10
144.623
20
-106.644
11
144.613
21
-106.664
0
LINE
8
BLACK
6
CONTINUOUS
10
144.613
20
-106.664
11
144.611
21
-106.681
0
LINE
8
BLACK
6
CONTINUOUS
10
144.611
20
-106.681
11
144.613
21
-106.698
0
LINE
8
BLACK
6
CONTINUOUS
10
144.613
20
-106.698
11
144.613
21
-106.699
0
LINE
8
BLACK
6
CONTINUOUS
10
144.613
20
-106.699
11
144.63
21
-106.739
0
LINE
8
BLACK
6
CONTINUOUS
10
144.63
20
-106.739
11
144.665
21
-106.757
0
LINE
8
BLACK
6
CONTINUOUS
10
144.665
20
-106.757
11
144.775
21
-106.798
0
LINE
8
BLACK
6
CONTINUOUS
10
144.775
20
-106.798
11
144.775
21
-106.799
0
LINE
8
BLACK
6
CONTINUOUS
10
144.775
20
-106.799
11
144.776
21
-106.799
0
LINE
8
BLACK
6
CONTINUOUS
10
144.776
20
-106.799
11
144.875
21
-106.868
0
LINE
8
BLACK
6
CONTINUOUS
10
144.875
20
-106.868
11
144.875
21
-106.869
0
LINE
8
BLACK
6
CONTINUOUS
10
144.875
20
-106.869
11
144.876
21
-106.869
0
LINE
8
BLACK
6
CONTINUOUS
10
144.876
20
-106.869
11
144.953
21
-106.96
0
LINE
8
BLACK
6
CONTINUOUS
10
144.953
20
-106.96
11
144.954
21
-106.961
0
LINE
8
BLACK
6
CONTINUOUS
10
144.954
20
-106.961
11
144.954
21
-106.961
0
LINE
8
BLACK
6
CONTINUOUS
10
144.954
20
-106.961
11
145.007
21
-107.071
0
LINE
8
BLACK
6
CONTINUOUS
10
145.007
20
-107.071
11
145.007
21
-107.072
0
LINE
8
BLACK
6
CONTINUOUS
10
145.007
20
-107.072
11
145.008
21
-107.072
0
LINE
8
BLACK
6
CONTINUOUS
10
145.008
20
-107.072
11
145.033
21
-107.196
0
LINE
8
BLACK
6
CONTINUOUS
10
145.033
20
-107.196
11
145.033
21
-107.196
0
LINE
8
BLACK
6
CONTINUOUS
10
145.033
20
-107.196
11
145.033
21
-107.197
0
LINE
8
BLACK
6
CONTINUOUS
10
145.033
20
-107.197
11
145.041
21
-107.297
0
LINE
8
BLACK
6
CONTINUOUS
10
145.041
20
-107.297
11
146.295
21
-107.297
0
LINE
8
BLACK
6
CONTINUOUS
10
146.295
20
-107.297
11
146.302
21
-107.264
0
LINE
8
BLACK
6
CONTINUOUS
10
146.302
20
-107.264
11
146.304
21
-107.255
0
LINE
8
BLACK
6
CONTINUOUS
10
146.304
20
-107.255
11
146.309
21
-107.213
0
LINE
8
BLACK
6
CONTINUOUS
10
146.309
20
-107.213
11
146.315
21
-107.147
0
LINE
8
BLACK
6
CONTINUOUS
10
146.315
20
-107.147
11
146.323
21
-107.06
0
LINE
8
BLACK
6
CONTINUOUS
10
146.323
20
-107.06
11
146.323
21
-107.06
0
LINE
8
BLACK
6
CONTINUOUS
10
146.323
20
-107.06
11
146.332
21
-106.958
0
LINE
8
BLACK
6
CONTINUOUS
10
146.332
20
-106.958
11
146.341
21
-106.847
0
LINE
8
BLACK
6
CONTINUOUS
10
146.341
20
-106.847
11
146.37
21
-106.47
0
LINE
8
BLACK
6
CONTINUOUS
10
146.37
20
-106.47
11
145.972
21
-106.066
0
LINE
8
BLACK
6
CONTINUOUS
10
145.972
20
-106.066
11
145.972
21
-106.066
0
LINE
8
BLACK
6
CONTINUOUS
10
145.972
20
-106.066
11
145.899
21
-105.991
0
LINE
8
BLACK
6
CONTINUOUS
10
145.899
20
-105.991
11
145.899
21
-105.991
0
LINE
8
BLACK
6
CONTINUOUS
10
145.899
20
-105.991
11
145.809
21
-105.901
0
LINE
8
BLACK
6
CONTINUOUS
10
145.809
20
-105.901
11
145.728
21
-105.821
0
LINE
8
BLACK
6
CONTINUOUS
10
145.728
20
-105.821
11
145.728
21
-105.821
0
LINE
8
BLACK
6
CONTINUOUS
10
145.728
20
-105.821
11
145.66
21
-105.754
0
LINE
8
BLACK
6
CONTINUOUS
10
145.66
20
-105.754
11
145.606
21
-105.703
0
LINE
8
BLACK
6
CONTINUOUS
10
145.606
20
-105.703
11
145.571
21
-105.669
0
LINE
8
BLACK
6
CONTINUOUS
10
145.571
20
-105.669
11
145.558
21
-105.66
0
LINE
8
BLACK
6
CONTINUOUS
10
145.558
20
-105.66
11
145.551
21
-105.663
0
LINE
8
BLACK
6
CONTINUOUS
10
144.424
20
-104.511
11
144.426
21
-104.552
0
LINE
8
BLACK
6
CONTINUOUS
10
144.426
20
-104.552
11
144.431
21
-104.621
0
LINE
8
BLACK
6
CONTINUOUS
10
144.431
20
-104.621
11
144.438
21
-104.715
0
LINE
8
BLACK
6
CONTINUOUS
10
144.438
20
-104.715
11
144.438
21
-104.715
0
LINE
8
BLACK
6
CONTINUOUS
10
144.438
20
-104.715
11
144.447
21
-104.832
0
LINE
8
BLACK
6
CONTINUOUS
10
144.447
20
-104.832
11
144.447
21
-104.832
0
LINE
8
BLACK
6
CONTINUOUS
10
144.447
20
-104.832
11
144.459
21
-104.967
0
LINE
8
BLACK
6
CONTINUOUS
10
144.459
20
-104.967
11
144.472
21
-105.118
0
LINE
8
BLACK
6
CONTINUOUS
10
144.472
20
-105.118
11
144.486
21
-105.283
0
LINE
8
BLACK
6
CONTINUOUS
10
144.486
20
-105.283
11
144.501
21
-105.457
0
LINE
8
BLACK
6
CONTINUOUS
10
144.501
20
-105.457
11
144.502
21
-105.457
0
LINE
8
BLACK
6
CONTINUOUS
10
144.502
20
-105.457
11
144.514
21
-105.592
0
LINE
8
BLACK
6
CONTINUOUS
10
144.514
20
-105.592
11
144.514
21
-105.592
0
LINE
8
BLACK
6
CONTINUOUS
10
144.514
20
-105.592
11
144.529
21
-105.759
0
LINE
8
BLACK
6
CONTINUOUS
10
144.529
20
-105.759
11
144.529
21
-105.759
0
LINE
8
BLACK
6
CONTINUOUS
10
144.529
20
-105.759
11
144.543
21
-105.913
0
LINE
8
BLACK
6
CONTINUOUS
10
144.543
20
-105.913
11
144.556
21
-106.052
0
LINE
8
BLACK
6
CONTINUOUS
10
144.556
20
-106.052
11
144.568
21
-106.173
0
LINE
8
BLACK
6
CONTINUOUS
10
144.568
20
-106.173
11
144.568
21
-106.173
0
LINE
8
BLACK
6
CONTINUOUS
10
144.568
20
-106.173
11
144.577
21
-106.272
0
LINE
8
BLACK
6
CONTINUOUS
10
144.577
20
-106.272
11
144.577
21
-106.272
0
LINE
8
BLACK
6
CONTINUOUS
10
144.577
20
-106.272
11
144.585
21
-106.347
0
LINE
8
BLACK
6
CONTINUOUS
10
144.585
20
-106.347
11
144.59
21
-106.394
0
LINE
8
BLACK
6
CONTINUOUS
10
144.59
20
-106.394
11
144.591
21
-106.403
0
LINE
8
BLACK
6
CONTINUOUS
10
144.591
20
-106.403
11
144.592
21
-106.403
0
LINE
8
BLACK
6
CONTINUOUS
10
144.592
20
-106.403
11
144.619
21
-106.377
0
LINE
8
BLACK
6
CONTINUOUS
10
144.619
20
-106.377
11
144.664
21
-106.332
0
LINE
8
BLACK
6
CONTINUOUS
10
144.664
20
-106.332
11
144.664
21
-106.332
0
LINE
8
BLACK
6
CONTINUOUS
10
144.664
20
-106.332
11
144.724
21
-106.272
0
LINE
8
BLACK
6
CONTINUOUS
10
144.724
20
-106.272
11
144.794
21
-106.199
0
LINE
8
BLACK
6
CONTINUOUS
10
144.794
20
-106.199
11
144.794
21
-106.199
0
LINE
8
BLACK
6
CONTINUOUS
10
144.794
20
-106.199
11
144.872
21
-106.117
0
LINE
8
BLACK
6
CONTINUOUS
10
144.872
20
-106.117
11
144.872
21
-106.117
0
LINE
8
BLACK
6
CONTINUOUS
10
144.872
20
-106.117
11
144.955
21
-106.03
0
LINE
8
BLACK
6
CONTINUOUS
10
144.955
20
-106.03
11
145.04
21
-105.94
0
LINE
8
BLACK
6
CONTINUOUS
10
145.04
20
-105.94
11
145.04
21
-105.94
0
LINE
8
BLACK
6
CONTINUOUS
10
145.04
20
-105.94
11
145.124
21
-105.851
0
LINE
8
BLACK
6
CONTINUOUS
10
145.124
20
-105.851
11
145.124
21
-105.851
0
LINE
8
BLACK
6
CONTINUOUS
10
145.124
20
-105.851
11
145.203
21
-105.767
0
LINE
8
BLACK
6
CONTINUOUS
10
145.203
20
-105.767
11
145.203
21
-105.767
0
LINE
8
BLACK
6
CONTINUOUS
10
145.203
20
-105.767
11
145.275
21
-105.689
0
LINE
8
BLACK
6
CONTINUOUS
10
145.275
20
-105.689
11
145.275
21
-105.689
0
LINE
8
BLACK
6
CONTINUOUS
10
145.275
20
-105.689
11
145.337
21
-105.623
0
LINE
8
BLACK
6
CONTINUOUS
10
145.337
20
-105.623
11
145.384
21
-105.57
0
LINE
8
BLACK
6
CONTINUOUS
10
145.384
20
-105.57
11
145.415
21
-105.534
0
LINE
8
BLACK
6
CONTINUOUS
10
145.415
20
-105.534
11
145.424
21
-105.522
0
LINE
8
BLACK
6
CONTINUOUS
10
145.424
20
-105.522
11
145.415
21
-105.511
0
LINE
8
BLACK
6
CONTINUOUS
10
145.415
20
-105.511
11
145.384
21
-105.476
0
LINE
8
BLACK
6
CONTINUOUS
10
145.384
20
-105.476
11
145.335
21
-105.424
0
LINE
8
BLACK
6
CONTINUOUS
10
145.335
20
-105.424
11
145.335
21
-105.424
0
LINE
8
BLACK
6
CONTINUOUS
10
145.335
20
-105.424
11
145.271
21
-105.357
0
LINE
8
BLACK
6
CONTINUOUS
10
145.271
20
-105.357
11
145.195
21
-105.278
0
LINE
8
BLACK
6
CONTINUOUS
10
145.195
20
-105.278
11
145.195
21
-105.278
0
LINE
8
BLACK
6
CONTINUOUS
10
145.195
20
-105.278
11
145.11
21
-105.192
0
LINE
8
BLACK
6
CONTINUOUS
10
145.11
20
-105.192
11
145.11
21
-105.192
0
LINE
8
BLACK
6
CONTINUOUS
10
145.11
20
-105.192
11
145.02
21
-105.099
0
LINE
8
BLACK
6
CONTINUOUS
10
145.02
20
-105.099
11
145.02
21
-105.099
0
LINE
8
BLACK
6
CONTINUOUS
10
145.02
20
-105.099
11
144.926
21
-105.004
0
LINE
8
BLACK
6
CONTINUOUS
10
144.926
20
-105.004
11
144.926
21
-105.004
0
LINE
8
BLACK
6
CONTINUOUS
10
144.926
20
-105.004
11
144.832
21
-104.909
0
LINE
8
BLACK
6
CONTINUOUS
10
144.832
20
-104.909
11
144.832
21
-104.909
0
LINE
8
BLACK
6
CONTINUOUS
10
144.832
20
-104.909
11
144.741
21
-104.818
0
LINE
8
BLACK
6
CONTINUOUS
10
144.741
20
-104.818
11
144.655
21
-104.733
0
LINE
8
BLACK
6
CONTINUOUS
10
144.655
20
-104.733
11
144.578
21
-104.657
0
LINE
8
BLACK
6
CONTINUOUS
10
144.578
20
-104.657
11
144.513
21
-104.593
0
LINE
8
BLACK
6
CONTINUOUS
10
144.513
20
-104.593
11
144.513
21
-104.593
0
LINE
8
BLACK
6
CONTINUOUS
10
144.513
20
-104.593
11
144.462
21
-104.545
0
LINE
8
BLACK
6
CONTINUOUS
10
144.462
20
-104.545
11
144.429
21
-104.514
0
LINE
8
BLACK
6
CONTINUOUS
10
144.429
20
-104.514
11
144.424
21
-104.51
0
LINE
8
BLACK
6
CONTINUOUS
10
144.424
20
-104.51
11
144.424
21
-104.511
0
LINE
8
BLACK
6
CONTINUOUS
10
146.518
20
-104.638
11
146.483
21
-104.674
0
LINE
8
BLACK
6
CONTINUOUS
10
146.483
20
-104.674
11
146.432
21
-104.727
0
LINE
8
BLACK
6
CONTINUOUS
10
146.432
20
-104.727
11
146.368
21
-104.794
0
LINE
8
BLACK
6
CONTINUOUS
10
146.368
20
-104.794
11
146.368
21
-104.794
0
LINE
8
BLACK
6
CONTINUOUS
10
146.368
20
-104.794
11
146.293
21
-104.871
0
LINE
8
BLACK
6
CONTINUOUS
10
146.293
20
-104.871
11
146.293
21
-104.871
0
LINE
8
BLACK
6
CONTINUOUS
10
146.293
20
-104.871
11
146.212
21
-104.956
0
LINE
8
BLACK
6
CONTINUOUS
10
146.212
20
-104.956
11
146.212
21
-104.956
0
LINE
8
BLACK
6
CONTINUOUS
10
146.212
20
-104.956
11
146.127
21
-105.046
0
LINE
8
BLACK
6
CONTINUOUS
10
146.127
20
-105.046
11
146.127
21
-105.046
0
LINE
8
BLACK
6
CONTINUOUS
10
146.127
20
-105.046
11
146.041
21
-105.137
0
LINE
8
BLACK
6
CONTINUOUS
10
146.041
20
-105.137
11
146.041
21
-105.137
0
LINE
8
BLACK
6
CONTINUOUS
10
146.041
20
-105.137
11
145.958
21
-105.225
0
LINE
8
BLACK
6
CONTINUOUS
10
145.958
20
-105.225
11
145.958
21
-105.225
0
LINE
8
BLACK
6
CONTINUOUS
10
145.958
20
-105.225
11
145.879
21
-105.308
0
LINE
8
BLACK
6
CONTINUOUS
10
145.879
20
-105.308
11
145.879
21
-105.308
0
LINE
8
BLACK
6
CONTINUOUS
10
145.879
20
-105.308
11
145.81
21
-105.382
0
LINE
8
BLACK
6
CONTINUOUS
10
145.81
20
-105.382
11
145.81
21
-105.382
0
LINE
8
BLACK
6
CONTINUOUS
10
145.81
20
-105.382
11
145.677
21
-105.525
0
LINE
8
BLACK
6
CONTINUOUS
10
145.677
20
-105.525
11
146.04
21
-105.888
0
LINE
8
BLACK
6
CONTINUOUS
10
146.04
20
-105.888
11
146.04
21
-105.888
0
LINE
8
BLACK
6
CONTINUOUS
10
146.04
20
-105.888
11
146.129
21
-105.977
0
LINE
8
BLACK
6
CONTINUOUS
10
146.129
20
-105.977
11
146.129
21
-105.977
0
LINE
8
BLACK
6
CONTINUOUS
10
146.129
20
-105.977
11
146.214
21
-106.061
0
LINE
8
BLACK
6
CONTINUOUS
10
146.214
20
-106.061
11
146.279
21
-106.124
0
LINE
8
BLACK
6
CONTINUOUS
10
146.279
20
-106.124
11
146.328
21
-106.17
0
LINE
8
BLACK
6
CONTINUOUS
10
146.328
20
-106.17
11
146.362
21
-106.2
0
LINE
8
BLACK
6
CONTINUOUS
10
146.362
20
-106.2
11
146.384
21
-106.216
0
LINE
8
BLACK
6
CONTINUOUS
10
146.384
20
-106.216
11
146.394
21
-106.219
0
LINE
8
BLACK
6
CONTINUOUS
10
146.394
20
-106.219
11
146.396
21
-106.217
0
LINE
8
BLACK
6
CONTINUOUS
10
146.396
20
-106.217
11
146.398
21
-106.207
0
LINE
8
BLACK
6
CONTINUOUS
10
146.398
20
-106.207
11
146.399
21
-106.187
0
LINE
8
BLACK
6
CONTINUOUS
10
146.399
20
-106.187
11
146.399
21
-106.187
0
LINE
8
BLACK
6
CONTINUOUS
10
146.399
20
-106.187
11
146.399
21
-106.187
0
LINE
8
BLACK
6
CONTINUOUS
10
146.399
20
-106.187
11
146.402
21
-106.135
0
LINE
8
BLACK
6
CONTINUOUS
10
146.402
20
-106.135
11
146.402
21
-106.135
0
LINE
8
BLACK
6
CONTINUOUS
10
146.402
20
-106.135
11
146.402
21
-106.135
0
LINE
8
BLACK
6
CONTINUOUS
10
146.402
20
-106.135
11
146.408
21
-106.057
0
LINE
8
BLACK
6
CONTINUOUS
10
146.408
20
-106.057
11
146.408
21
-106.057
0
LINE
8
BLACK
6
CONTINUOUS
10
146.408
20
-106.057
11
146.408
21
-106.057
0
LINE
8
BLACK
6
CONTINUOUS
10
146.408
20
-106.057
11
146.416
21
-105.955
0
LINE
8
BLACK
6
CONTINUOUS
10
146.416
20
-105.955
11
146.416
21
-105.955
0
LINE
8
BLACK
6
CONTINUOUS
10
146.416
20
-105.955
11
146.416
21
-105.955
0
LINE
8
BLACK
6
CONTINUOUS
10
146.416
20
-105.955
11
146.426
21
-105.834
0
LINE
8
BLACK
6
CONTINUOUS
10
146.426
20
-105.834
11
146.426
21
-105.834
0
LINE
8
BLACK
6
CONTINUOUS
10
146.426
20
-105.834
11
146.426
21
-105.834
0
LINE
8
BLACK
6
CONTINUOUS
10
146.426
20
-105.834
11
146.437
21
-105.697
0
LINE
8
BLACK
6
CONTINUOUS
10
146.437
20
-105.697
11
146.437
21
-105.697
0
LINE
8
BLACK
6
CONTINUOUS
10
146.437
20
-105.697
11
146.437
21
-105.697
0
LINE
8
BLACK
6
CONTINUOUS
10
146.437
20
-105.697
11
146.45
21
-105.547
0
LINE
8
BLACK
6
CONTINUOUS
10
146.45
20
-105.547
11
146.45
21
-105.547
0
LINE
8
BLACK
6
CONTINUOUS
10
146.45
20
-105.547
11
146.45
21
-105.547
0
LINE
8
BLACK
6
CONTINUOUS
10
146.45
20
-105.547
11
146.463
21
-105.389
0
LINE
8
BLACK
6
CONTINUOUS
10
146.463
20
-105.389
11
146.463
21
-105.389
0
LINE
8
BLACK
6
CONTINUOUS
10
146.463
20
-105.389
11
146.475
21
-105.249
0
LINE
8
BLACK
6
CONTINUOUS
10
146.475
20
-105.249
11
146.475
21
-105.249
0
LINE
8
BLACK
6
CONTINUOUS
10
146.475
20
-105.249
11
146.488
21
-105.102
0
LINE
8
BLACK
6
CONTINUOUS
10
146.488
20
-105.102
11
146.499
21
-104.968
0
LINE
8
BLACK
6
CONTINUOUS
10
146.499
20
-104.968
11
146.499
21
-104.968
0
LINE
8
BLACK
6
CONTINUOUS
10
146.499
20
-104.968
11
146.509
21
-104.852
0
LINE
8
BLACK
6
CONTINUOUS
10
146.509
20
-104.852
11
146.516
21
-104.755
0
LINE
8
BLACK
6
CONTINUOUS
10
146.516
20
-104.755
11
146.516
21
-104.755
0
LINE
8
BLACK
6
CONTINUOUS
10
146.516
20
-104.755
11
146.522
21
-104.682
0
LINE
8
BLACK
6
CONTINUOUS
10
146.522
20
-104.682
11
146.522
21
-104.682
0
LINE
8
BLACK
6
CONTINUOUS
10
146.522
20
-104.682
11
146.525
21
-104.635
0
LINE
8
BLACK
6
CONTINUOUS
10
146.525
20
-104.635
11
146.525
21
-104.631
0
LINE
8
BLACK
6
CONTINUOUS
10
146.525
20
-104.631
11
146.518
21
-104.638
0
LINE
8
BLACK
6
CONTINUOUS
10
144.342
20
-103.681
11
144.347
21
-103.738
0
LINE
8
BLACK
6
CONTINUOUS
10
144.347
20
-103.738
11
144.35
21
-103.767
0
LINE
8
BLACK
6
CONTINUOUS
10
144.35
20
-103.767
11
144.358
21
-103.844
0
LINE
8
BLACK
6
CONTINUOUS
10
144.358
20
-103.844
11
144.366
21
-103.895
0
LINE
8
BLACK
6
CONTINUOUS
10
144.366
20
-103.895
11
144.375
21
-103.923
0
LINE
8
BLACK
6
CONTINUOUS
10
144.375
20
-103.923
11
144.385
21
-103.935
0
LINE
8
BLACK
6
CONTINUOUS
10
144.385
20
-103.935
11
144.399
21
-103.938
0
LINE
8
BLACK
6
CONTINUOUS
10
144.399
20
-103.938
11
144.413
21
-103.941
0
LINE
8
BLACK
6
CONTINUOUS
10
144.413
20
-103.941
11
144.415
21
-103.942
0
LINE
8
BLACK
6
CONTINUOUS
10
144.415
20
-103.942
11
144.416
21
-103.942
0
LINE
8
BLACK
6
CONTINUOUS
10
144.416
20
-103.942
11
144.426
21
-103.954
0
LINE
8
BLACK
6
CONTINUOUS
10
144.426
20
-103.954
11
144.426
21
-103.955
0
LINE
8
BLACK
6
CONTINUOUS
10
144.426
20
-103.955
11
144.427
21
-103.956
0
LINE
8
BLACK
6
CONTINUOUS
10
144.427
20
-103.956
11
144.433
21
-103.983
0
LINE
8
BLACK
6
CONTINUOUS
10
144.433
20
-103.983
11
144.432
21
-103.983
0
LINE
8
BLACK
6
CONTINUOUS
10
144.432
20
-103.983
11
144.433
21
-103.983
0
LINE
8
BLACK
6
CONTINUOUS
10
144.433
20
-103.983
11
144.435
21
-104.031
0
LINE
8
BLACK
6
CONTINUOUS
10
144.435
20
-104.031
11
144.435
21
-104.031
0
LINE
8
BLACK
6
CONTINUOUS
10
144.435
20
-104.031
11
144.435
21
-104.031
0
LINE
8
BLACK
6
CONTINUOUS
10
144.435
20
-104.031
11
144.436
21
-104.106
0
LINE
8
BLACK
6
CONTINUOUS
10
144.436
20
-104.106
11
144.436
21
-104.106
0
LINE
8
BLACK
6
CONTINUOUS
10
144.436
20
-104.106
11
144.436
21
-104.107
0
LINE
8
BLACK
6
CONTINUOUS
10
144.436
20
-104.107
11
144.436
21
-104.268
0
LINE
8
BLACK
6
CONTINUOUS
10
144.436
20
-104.268
11
144.487
21
-104.319
0
LINE
8
BLACK
6
CONTINUOUS
10
144.487
20
-104.319
11
144.487
21
-104.319
0
LINE
8
BLACK
6
CONTINUOUS
10
144.487
20
-104.319
11
144.487
21
-104.319
0
LINE
8
BLACK
6
CONTINUOUS
10
144.487
20
-104.319
11
144.487
21
-104.319
0
LINE
8
BLACK
6
CONTINUOUS
10
144.487
20
-104.319
11
144.618
21
-104.449
0
LINE
8
BLACK
6
CONTINUOUS
10
144.618
20
-104.449
11
144.793
21
-104.624
0
LINE
8
BLACK
6
CONTINUOUS
10
144.793
20
-104.624
11
144.793
21
-104.495
0
LINE
8
BLACK
6
CONTINUOUS
10
144.793
20
-104.495
11
144.795
21
-104.491
0
LINE
8
BLACK
6
CONTINUOUS
10
144.795
20
-104.491
11
144.798
21
-104.49
0
LINE
8
BLACK
6
CONTINUOUS
10
144.798
20
-104.49
11
145.801
21
-104.49
0
LINE
8
BLACK
6
CONTINUOUS
10
145.801
20
-104.49
11
145.804
21
-104.491
0
LINE
8
BLACK
6
CONTINUOUS
10
145.804
20
-104.491
11
145.806
21
-104.495
0
LINE
8
BLACK
6
CONTINUOUS
10
145.806
20
-104.495
11
145.806
21
-104.812
0
LINE
8
BLACK
6
CONTINUOUS
10
145.806
20
-104.812
11
145.804
21
-104.816
0
LINE
8
BLACK
6
CONTINUOUS
10
145.804
20
-104.816
11
145.801
21
-104.817
0
LINE
8
BLACK
6
CONTINUOUS
10
145.801
20
-104.817
11
144.991
21
-104.817
0
LINE
8
BLACK
6
CONTINUOUS
10
144.991
20
-104.817
11
145.261
21
-105.097
0
LINE
8
BLACK
6
CONTINUOUS
10
145.261
20
-105.097
11
145.315
21
-105.152
0
LINE
8
BLACK
6
CONTINUOUS
10
145.315
20
-105.152
11
145.388
21
-105.228
0
LINE
8
BLACK
6
CONTINUOUS
10
145.388
20
-105.228
11
145.388
21
-105.228
0
LINE
8
BLACK
6
CONTINUOUS
10
145.388
20
-105.228
11
145.452
21
-105.293
0
LINE
8
BLACK
6
CONTINUOUS
10
145.452
20
-105.293
11
145.503
21
-105.343
0
LINE
8
BLACK
6
CONTINUOUS
10
145.503
20
-105.343
11
145.503
21
-105.343
0
LINE
8
BLACK
6
CONTINUOUS
10
145.503
20
-105.343
11
145.538
21
-105.377
0
LINE
8
BLACK
6
CONTINUOUS
10
145.538
20
-105.377
11
145.55
21
-105.387
0
LINE
8
BLACK
6
CONTINUOUS
10
145.55
20
-105.387
11
145.552
21
-105.386
0
LINE
8
BLACK
6
CONTINUOUS
10
145.552
20
-105.386
11
145.578
21
-105.362
0
LINE
8
BLACK
6
CONTINUOUS
10
145.578
20
-105.362
11
145.623
21
-105.318
0
LINE
8
BLACK
6
CONTINUOUS
10
145.623
20
-105.318
11
145.623
21
-105.318
0
LINE
8
BLACK
6
CONTINUOUS
10
145.623
20
-105.318
11
145.685
21
-105.256
0
LINE
8
BLACK
6
CONTINUOUS
10
145.685
20
-105.256
11
145.685
21
-105.256
0
LINE
8
BLACK
6
CONTINUOUS
10
145.685
20
-105.256
11
145.762
21
-105.179
0
LINE
8
BLACK
6
CONTINUOUS
10
145.762
20
-105.179
11
145.762
21
-105.179
0
LINE
8
BLACK
6
CONTINUOUS
10
145.762
20
-105.179
11
145.85
21
-105.088
0
LINE
8
BLACK
6
CONTINUOUS
10
145.85
20
-105.088
11
145.85
21
-105.088
0
LINE
8
BLACK
6
CONTINUOUS
10
145.85
20
-105.088
11
145.948
21
-104.987
0
LINE
8
BLACK
6
CONTINUOUS
10
145.948
20
-104.987
11
146.052
21
-104.878
0
LINE
8
BLACK
6
CONTINUOUS
10
146.052
20
-104.878
11
146.052
21
-104.878
0
LINE
8
BLACK
6
CONTINUOUS
10
146.052
20
-104.878
11
146.157
21
-104.768
0
LINE
8
BLACK
6
CONTINUOUS
10
146.157
20
-104.768
11
146.157
21
-104.768
0
LINE
8
BLACK
6
CONTINUOUS
10
146.157
20
-104.768
11
146.26
21
-104.659
0
LINE
8
BLACK
6
CONTINUOUS
10
146.26
20
-104.659
11
146.344
21
-104.57
0
LINE
8
BLACK
6
CONTINUOUS
10
146.344
20
-104.57
11
146.344
21
-104.57
0
LINE
8
BLACK
6
CONTINUOUS
10
146.344
20
-104.57
11
146.41
21
-104.498
0
LINE
8
BLACK
6
CONTINUOUS
10
146.41
20
-104.498
11
146.461
21
-104.441
0
LINE
8
BLACK
6
CONTINUOUS
10
146.461
20
-104.441
11
146.498
21
-104.397
0
LINE
8
BLACK
6
CONTINUOUS
10
146.498
20
-104.397
11
146.524
21
-104.363
0
LINE
8
BLACK
6
CONTINUOUS
10
146.524
20
-104.363
11
146.54
21
-104.337
0
LINE
8
BLACK
6
CONTINUOUS
10
146.54
20
-104.337
11
146.55
21
-104.316
0
LINE
8
BLACK
6
CONTINUOUS
10
146.55
20
-104.316
11
146.554
21
-104.299
0
LINE
8
BLACK
6
CONTINUOUS
10
146.554
20
-104.299
11
146.555
21
-104.291
0
LINE
8
BLACK
6
CONTINUOUS
10
146.555
20
-104.291
11
146.56
21
-104.242
0
LINE
8
BLACK
6
CONTINUOUS
10
146.56
20
-104.242
11
146.567
21
-104.171
0
LINE
8
BLACK
6
CONTINUOUS
10
146.567
20
-104.171
11
146.567
21
-104.171
0
LINE
8
BLACK
6
CONTINUOUS
10
146.567
20
-104.171
11
146.574
21
-104.085
0
LINE
8
BLACK
6
CONTINUOUS
10
146.574
20
-104.085
11
146.581
21
-103.993
0
LINE
8
BLACK
6
CONTINUOUS
10
146.581
20
-103.993
11
146.584
21
-103.961
0
LINE
8
BLACK
6
CONTINUOUS
10
146.584
20
-103.961
11
146.584
21
-103.961
0
LINE
8
BLACK
6
CONTINUOUS
10
146.584
20
-103.961
11
146.584
21
-103.961
0
LINE
8
BLACK
6
CONTINUOUS
10
146.584
20
-103.961
11
146.591
21
-103.874
0
LINE
8
BLACK
6
CONTINUOUS
10
146.591
20
-103.874
11
146.591
21
-103.874
0
LINE
8
BLACK
6
CONTINUOUS
10
146.591
20
-103.874
11
146.591
21
-103.874
0
LINE
8
BLACK
6
CONTINUOUS
10
146.591
20
-103.874
11
146.597
21
-103.799
0
LINE
8
BLACK
6
CONTINUOUS
10
146.597
20
-103.799
11
146.597
21
-103.799
0
LINE
8
BLACK
6
CONTINUOUS
10
146.597
20
-103.799
11
146.597
21
-103.799
0
LINE
8
BLACK
6
CONTINUOUS
10
146.597
20
-103.799
11
146.603
21
-103.743
0
LINE
8
BLACK
6
CONTINUOUS
10
146.603
20
-103.743
11
146.603
21
-103.743
0
LINE
8
BLACK
6
CONTINUOUS
10
146.603
20
-103.743
11
146.603
21
-103.743
0
LINE
8
BLACK
6
CONTINUOUS
10
146.603
20
-103.743
11
146.607
21
-103.713
0
LINE
8
BLACK
6
CONTINUOUS
10
146.607
20
-103.713
11
146.607
21
-103.713
0
LINE
8
BLACK
6
CONTINUOUS
10
146.607
20
-103.713
11
146.607
21
-103.712
0
LINE
8
BLACK
6
CONTINUOUS
10
146.607
20
-103.712
11
146.614
21
-103.681
0
LINE
8
BLACK
6
CONTINUOUS
10
146.614
20
-103.681
11
144.342
21
-103.681
0
LINE
8
BLACK
6
CONTINUOUS
10
144.018
20
-104.356
11
144.121
21
-104.356
0
LINE
8
BLACK
6
CONTINUOUS
10
144.121
20
-104.356
11
144.131
21
-104.356
0
LINE
8
BLACK
6
CONTINUOUS
10
144.131
20
-104.356
11
144.185
21
-104.355
0
LINE
8
BLACK
6
CONTINUOUS
10
144.185
20
-104.355
11
144.213
21
-104.35
0
LINE
8
BLACK
6
CONTINUOUS
10
144.213
20
-104.35
11
144.223
21
-104.341
0
LINE
8
BLACK
6
CONTINUOUS
10
144.223
20
-104.341
11
144.225
21
-104.324
0
LINE
8
BLACK
6
CONTINUOUS
10
144.225
20
-104.324
11
144.215
21
-104.295
0
LINE
8
BLACK
6
CONTINUOUS
10
144.215
20
-104.295
11
144.179
21
-104.246
0
LINE
8
BLACK
6
CONTINUOUS
10
144.179
20
-104.246
11
144.118
21
-104.181
0
LINE
8
BLACK
6
CONTINUOUS
10
144.118
20
-104.181
11
144.018
21
-104.082
0
LINE
8
BLACK
6
CONTINUOUS
10
144.018
20
-104.082
11
144.018
21
-104.356
0
LINE
8
BLACK
6
CONTINUOUS
10
146.493
20
-103.418
11
146.491
21
-103.459
0
LINE
8
BLACK
6
CONTINUOUS
10
146.491
20
-103.459
11
146.491
21
-103.521
0
LINE
8
BLACK
6
CONTINUOUS
10
146.491
20
-103.521
11
146.562
21
-103.521
0
LINE
8
BLACK
6
CONTINUOUS
10
146.562
20
-103.521
11
146.584
21
-103.52
0
LINE
8
BLACK
6
CONTINUOUS
10
146.584
20
-103.52
11
146.616
21
-103.518
0
LINE
8
BLACK
6
CONTINUOUS
10
146.616
20
-103.518
11
146.622
21
-103.512
0
LINE
8
BLACK
6
CONTINUOUS
10
146.622
20
-103.512
11
146.616
21
-103.495
0
LINE
8
BLACK
6
CONTINUOUS
10
146.616
20
-103.495
11
146.614
21
-103.492
0
LINE
8
BLACK
6
CONTINUOUS
10
146.614
20
-103.492
11
146.589
21
-103.464
0
LINE
8
BLACK
6
CONTINUOUS
10
146.589
20
-103.464
11
146.554
21
-103.432
0
LINE
8
BLACK
6
CONTINUOUS
10
146.554
20
-103.432
11
146.518
21
-103.407
0
LINE
8
BLACK
6
CONTINUOUS
10
146.518
20
-103.407
11
146.498
21
-103.398
0
LINE
8
BLACK
6
CONTINUOUS
10
146.498
20
-103.398
11
146.493
21
-103.418
0
LINE
8
BLACK
6
CONTINUOUS
10
145.772
20
-103.358
11
145.771
21
-103.362
0
LINE
8
BLACK
6
CONTINUOUS
10
145.771
20
-103.362
11
145.767
21
-103.363
0
LINE
8
BLACK
6
CONTINUOUS
10
145.767
20
-103.363
11
144.999
21
-103.363
0
LINE
8
BLACK
6
CONTINUOUS
10
144.999
20
-103.363
11
144.995
21
-103.362
0
LINE
8
BLACK
6
CONTINUOUS
10
144.995
20
-103.362
11
144.994
21
-103.358
0
LINE
8
BLACK
6
CONTINUOUS
10
144.994
20
-103.358
11
144.994
21
-103.243
0
LINE
8
BLACK
6
CONTINUOUS
10
144.994
20
-103.243
11
144.903
21
-103.254
0
LINE
8
BLACK
6
CONTINUOUS
10
144.903
20
-103.254
11
144.757
21
-103.279
0
LINE
8
BLACK
6
CONTINUOUS
10
144.757
20
-103.279
11
144.61
21
-103.323
0
LINE
8
BLACK
6
CONTINUOUS
10
144.61
20
-103.323
11
144.489
21
-103.384
0
LINE
8
BLACK
6
CONTINUOUS
10
144.489
20
-103.384
11
144.39
21
-103.464
0
LINE
8
BLACK
6
CONTINUOUS
10
144.39
20
-103.464
11
144.335
21
-103.521
0
LINE
8
BLACK
6
CONTINUOUS
10
144.335
20
-103.521
11
146.198
21
-103.521
0
LINE
8
BLACK
6
CONTINUOUS
10
146.198
20
-103.521
11
146.193
21
-103.405
0
LINE
8
BLACK
6
CONTINUOUS
10
146.193
20
-103.405
11
146.189
21
-103.289
0
LINE
8
BLACK
6
CONTINUOUS
10
146.189
20
-103.289
11
146.092
21
-103.269
0
LINE
8
BLACK
6
CONTINUOUS
10
146.092
20
-103.269
11
146.042
21
-103.26
0
LINE
8
BLACK
6
CONTINUOUS
10
146.042
20
-103.26
11
145.958
21
-103.247
0
LINE
8
BLACK
6
CONTINUOUS
10
145.958
20
-103.247
11
145.88
21
-103.238
0
LINE
8
BLACK
6
CONTINUOUS
10
145.88
20
-103.238
11
145.772
21
-103.227
0
LINE
8
BLACK
6
CONTINUOUS
10
145.772
20
-103.227
11
145.772
21
-103.358
0
LINE
8
BLACK
6
CONTINUOUS
10
145.137
20
-103.146
11
145.137
21
-103.22
0
LINE
8
BLACK
6
CONTINUOUS
10
145.137
20
-103.22
11
145.629
21
-103.22
0
LINE
8
BLACK
6
CONTINUOUS
10
145.629
20
-103.22
11
145.629
21
-103.146
0
LINE
8
BLACK
6
CONTINUOUS
10
145.629
20
-103.146
11
145.137
21
-103.146
  0
ENDSEC
  0
EOF
