  0
SECTION
  2
HEADER
  9
$ACADVER
  1
AC1009
  9
$INSBASE
 10
0.0
 20
0.0
 30
0.0
  9
$EXTMIN
 10
0.0
 20
0.0
 30
0.0
  9
$EXTMAX
 10
0.0
 20
0.0
 30
0.0
  0
ENDSEC
  0
SECTION
  2
TABLES
  0
TABLE
  2
VPORT
 70
0
  0
ENDTAB
  0
TABLE
  2
LTYPE
 70
1
  0
LTYPE
  2
CONTINUOUS
 70
0
  3
Solid line
 72
65
 73
0
 40
0.0
  0
ENDTAB
  0
TABLE
  2
LAYER
 70
1
  0
LAYER
  2
0
 70
64
 62
7
  6
continuous
  0
ENDTAB
  0
TABLE
  2
STYLE
 70
1
  0
STYLE
  2
STANDARD
 70
0
 40
0
 41
1.0
 50
0.0
 71
0
 42
1
 3
ARIAL.TTF
 4

  0
ENDTAB
  0
TABLE
  2
VIEW
 70
0
  0
ENDTAB
  0
ENDSEC
  0
SECTION
  2
BLOCKS
  0
BLOCK
  8
0
  2
PART__FEATURE
 70
0
 10
0.0
 20
0.0
 30
0.0
  3
PART__FEATURE
  0
LINE
  8
0
 62
0
 10
26.3438074569446
 20
-76.845
 30
0.0
 11
26.3438074569446
 21
-170.698
 31
0.0
  0
LINE
  8
0
 62
0
 10
95.8864081878633
 20
-76.845
 30
0.0
 11
26.343807456944603
 21
-76.845
 31
0.0
  0
LINE
  8
0
 62
0
 10
95.8864081878633
 20
-170.698
 30
0.0
 11
95.8864081878633
 21
-76.845
 31
0.0
  0
LINE
  8
0
 62
0
 10
95.8864081878633
 20
-170.698
 30
0.0
 11
26.343807456944603
 21
-170.698
 31
0.0
  0
CIRCLE
  8
0
 62
0
 10
48.811
 20
-116.215
 30
0.0
 40
0.5
  0
CIRCLE
  8
0
 62
0
 10
51.351
 20
-116.215
 30
0.0
 40
0.5
  0
CIRCLE
  8
0
 62
0
 10
53.891
 20
-116.215
 30
0.0
 40
0.5
  0
CIRCLE
  8
0
 62
0
 10
61.511
 20
-116.215
 30
0.0
 40
0.5
  0
CIRCLE
  8
0
 62
0
 10
58.971
 20
-116.215
 30
0.0
 40
0.5
  0
CIRCLE
  8
0
 62
0
 10
56.431
 20
-116.215
 30
0.0
 40
0.5
  0
CIRCLE
  8
0
 62
0
 10
71.671
 20
-116.215
 30
0.0
 40
0.5
  0
CIRCLE
  8
0
 62
0
 10
69.131
 20
-116.215
 30
0.0
 40
0.5
  0
CIRCLE
  8
0
 62
0
 10
66.591
 20
-116.215
 30
0.0
 40
0.5
  0
CIRCLE
  8
0
 62
0
 10
64.051
 20
-116.215
 30
0.0
 40
0.5
  0
CIRCLE
  8
0
 62
0
 10
76.751
 20
-116.215
 30
0.0
 40
0.5
  0
CIRCLE
  8
0
 62
0
 10
74.211
 20
-116.215
 30
0.0
 40
0.5
  0
CIRCLE
  8
0
 62
0
 10
70.909
 20
-151.648
 30
0.0
 40
2.25
  0
CIRCLE
  8
0
 62
0
 10
88.943
 20
-145.679
 30
0.0
 40
0.9
  0
CIRCLE
  8
0
 62
0
 10
88.943
 20
-109.611
 30
0.0
 40
0.9
  0
CIRCLE
  8
0
 62
0
 10
88.054
 20
-96.53
 30
0.0
 40
0.9
  0
CIRCLE
  8
0
 62
0
 10
67.861
 20
-96.53
 30
0.0
 40
0.9
  0
CIRCLE
  8
0
 62
0
 10
44.874
 20
-84.973
 30
0.0
 40
2.25
  0
CIRCLE
  8
0
 62
0
 10
34.968
 20
-105.039
 30
0.0
 40
0.9
  0
CIRCLE
  8
0
 62
0
 10
47.922
 20
-96.53
 30
0.0
 40
0.9
  0
CIRCLE
  8
0
 62
0
 10
34.968
 20
-141.107
 30
0.0
 40
0.9
  0
CIRCLE
  8
0
 62
0
 10
32.936
 20
-162.697
 30
0.0
 40
0.9
  0
CIRCLE
  8
0
 62
0
 10
40.937
 20
-165.237
 30
0.0
 40
0.9
  0
CIRCLE
  8
0
 62
0
 10
82.974
 20
-165.237
 30
0.0
 40
0.9
  0
CIRCLE
  8
0
 62
0
 10
90.975
 20
-162.697
 30
0.0
 40
0.9
  0
ENDBLK
  0
ENDSEC
  0
SECTION
  2
ENTITIES
  0
INSERT
  2
PART__FEATURE
  8
0
 62
0
 10
0.0
 20
0.0
 30
0.0
  0
ENDSEC
  0
EOF
