  0
SECTION
  2
HEADER
  9
$ACADVER
  1
AC1009
  0
ENDSEC
  0
SECTION
  2
ENTITIES
  0
POLYLINE
  8
VACUUM
 66
1
 39
0
 10
0.000000
 20
0.000000
 30
0.000000
 70
1
  0
VERTEX
  8
VACUUM
 39
0
 10
0.000000
 20
-12.350480
 30
0.000000
 70
0
 42
0
  0
VERTEX
  8
VACUUM
 39
0
 10
23.913062
 20
-12.350480
 30
0.000000
 70
0
 42
0
  0
VERTEX
  8
VACUUM
 39
0
 10
23.913062
 20
3.579600
 30
0.000000
 70
0
 42
0
  0
VERTEX
  8
VACUUM
 39
0
 10
0.000000
 20
3.579600
 30
0.000000
 70
0
 42
0
  0
SEQEND
  8
VACUUM
  0
POLYLINE
  8
I-TERA
 66
1
 39
0
 10
0.000000
 20
0.000000
 30
0.000000
 70
1
  0
VERTEX
  8
I-TERA
 39
0
 10
0.000000
 20
-12.350480
 30
0.000000
 70
0
 42
0
  0
VERTEX
  8
I-TERA
 39
0
 10
23.913062
 20
-12.350480
 30
0.000000
 70
0
 42
0
  0
VERTEX
  8
I-TERA
 39
0
 10
23.913062
 20
3.579600
 30
0.000000
 70
0
 42
0
  0
VERTEX
  8
I-TERA
 39
0
 10
0.000000
 20
3.579600
 30
0.000000
 70
0
 42
0
  0
SEQEND
  8
I-TERA
  0
POLYLINE
  8
PEC
 66
1
 39
0
 10
0.000000
 20
0.000000
 30
0.000000
 70
1
  0
VERTEX
  8
PEC
 39
0
 10
0.000000
 20
-0.298300
 30
0.000000
 70
0
 42
0
  0
VERTEX
  8
PEC
 39
0
 10
2.000000
 20
-0.298300
 30
0.000000
 70
0
 42
0
  0
VERTEX
  8
PEC
 39
0
 10
2.000000
 20
0.298300
 30
0.000000
 70
0
 42
0
  0
VERTEX
  8
PEC
 39
0
 10
0.000000
 20
0.298300
 30
0.000000
 70
0
 42
0
  0
SEQEND
  8
PEC
  0
POLYLINE
  8
PEC
 66
1
 39
0
 10
0.000000
 20
0.000000
 30
0.000000
 70
1
  0
VERTEX
  8
PEC
 39
0
 10
2.000000
 20
-0.298300
 30
0.000000
 70
0
 42
0
  0
VERTEX
  8
PEC
 39
0
 10
2.190539
 20
-0.298300
 30
0.000000
 70
0
 42
0
  0
VERTEX
  8
PEC
 39
0
 10
2.190539
 20
0.298300
 30
0.000000
 70
0
 42
0
  0
VERTEX
  8
PEC
 39
0
 10
2.000000
 20
0.298300
 30
0.000000
 70
0
 42
0
  0
SEQEND
  8
PEC
  0
POLYLINE
  8
PEC
 66
1
 39
0
 10
0.000000
 20
0.000000
 30
0.000000
 70
1
  0
VERTEX
  8
PEC
 39
0
 10
2.000000
 20
-10.357352
 30
0.000000
 70
0
 42
0
  0
VERTEX
  8
PEC
 39
0
 10
2.190539
 20
-10.357352
 30
0.000000
 70
0
 42
0
  0
VERTEX
  8
PEC
 39
0
 10
2.190539
 20
-0.298300
 30
0.000000
 70
0
 42
0
  0
VERTEX
  8
PEC
 39
0
 10
2.000000
 20
-0.298300
 30
0.000000
 70
0
 42
0
  0
SEQEND
  8
PEC
  0
POLYLINE
  8
PEC
 66
1
 39
0
 10
0.000000
 20
0.000000
 30
0.000000
 70
1
  0
VERTEX
  8
PEC
 39
0
 10
2.190539
 20
-0.298300
 30
0.000000
 70
0
 42
0
  0
VERTEX
  8
PEC
 39
0
 10
11.856539
 20
-0.298300
 30
0.000000
 70
0
 42
0
  0
VERTEX
  8
PEC
 39
0
 10
11.856539
 20
0.298300
 30
0.000000
 70
0
 42
0
  0
VERTEX
  8
PEC
 39
0
 10
2.190539
 20
0.298300
 30
0.000000
 70
0
 42
0
  0
SEQEND
  8
PEC
  0
POLYLINE
  8
PEC
 66
1
 39
0
 10
0.000000
 20
0.000000
 30
0.000000
 70
1
  0
VERTEX
  8
PEC
 39
0
 10
11.856539
 20
-0.298300
 30
0.000000
 70
0
 42
0
  0
VERTEX
  8
PEC
 39
0
 10
12.056523
 20
-0.298300
 30
0.000000
 70
0
 42
0
  0
VERTEX
  8
PEC
 39
0
 10
12.056523
 20
0.298300
 30
0.000000
 70
0
 42
0
  0
VERTEX
  8
PEC
 39
0
 10
11.856539
 20
0.298300
 30
0.000000
 70
0
 42
0
  0
SEQEND
  8
PEC
  0
POLYLINE
  8
PEC
 66
1
 39
0
 10
0.000000
 20
0.000000
 30
0.000000
 70
1
  0
VERTEX
  8
PEC
 39
0
 10
11.861262
 20
-10.648780
 30
0.000000
 70
0
 42
0
  0
VERTEX
  8
PEC
 39
0
 10
12.051800
 20
-10.648780
 30
0.000000
 70
0
 42
0
  0
VERTEX
  8
PEC
 39
0
 10
12.051800
 20
-0.298300
 30
0.000000
 70
0
 42
0
  0
VERTEX
  8
PEC
 39
0
 10
11.861262
 20
-0.298300
 30
0.000000
 70
0
 42
0
  0
SEQEND
  8
PEC
  0
POLYLINE
  8
PEC
 66
1
 39
0
 10
0.000000
 20
0.000000
 30
0.000000
 70
1
  0
VERTEX
  8
PEC
 39
0
 10
12.056523
 20
-0.298300
 30
0.000000
 70
0
 42
0
  0
VERTEX
  8
PEC
 39
0
 10
21.722523
 20
-0.298300
 30
0.000000
 70
0
 42
0
  0
VERTEX
  8
PEC
 39
0
 10
21.722523
 20
0.298300
 30
0.000000
 70
0
 42
0
  0
VERTEX
  8
PEC
 39
0
 10
12.056523
 20
0.298300
 30
0.000000
 70
0
 42
0
  0
SEQEND
  8
PEC
  0
POLYLINE
  8
PEC
 66
1
 39
0
 10
0.000000
 20
0.000000
 30
0.000000
 70
1
  0
VERTEX
  8
PEC
 39
0
 10
21.722523
 20
-0.298300
 30
0.000000
 70
0
 42
0
  0
VERTEX
  8
PEC
 39
0
 10
21.913062
 20
-0.298300
 30
0.000000
 70
0
 42
0
  0
VERTEX
  8
PEC
 39
0
 10
21.913062
 20
0.298300
 30
0.000000
 70
0
 42
0
  0
VERTEX
  8
PEC
 39
0
 10
21.722523
 20
0.298300
 30
0.000000
 70
0
 42
0
  0
SEQEND
  8
PEC
  0
POLYLINE
  8
PEC
 66
1
 39
0
 10
0.000000
 20
0.000000
 30
0.000000
 70
1
  0
VERTEX
  8
PEC
 39
0
 10
21.722523
 20
-10.357352
 30
0.000000
 70
0
 42
0
  0
VERTEX
  8
PEC
 39
0
 10
21.913062
 20
-10.357352
 30
0.000000
 70
0
 42
0
  0
VERTEX
  8
PEC
 39
0
 10
21.913062
 20
-0.298300
 30
0.000000
 70
0
 42
0
  0
VERTEX
  8
PEC
 39
0
 10
21.722523
 20
-0.298300
 30
0.000000
 70
0
 42
0
  0
SEQEND
  8
PEC
  0
POLYLINE
  8
PEC
 66
1
 39
0
 10
0.000000
 20
0.000000
 30
0.000000
 70
1
  0
VERTEX
  8
PEC
 39
0
 10
21.913062
 20
-0.298300
 30
0.000000
 70
0
 42
0
  0
VERTEX
  8
PEC
 39
0
 10
23.913062
 20
-0.298300
 30
0.000000
 70
0
 42
0
  0
VERTEX
  8
PEC
 39
0
 10
23.913062
 20
0.298300
 30
0.000000
 70
0
 42
0
  0
VERTEX
  8
PEC
 39
0
 10
21.913062
 20
0.298300
 30
0.000000
 70
0
 42
0
  0
SEQEND
  8
PEC
  0
ENDSEC
  0
EOF
